Isis – Garden Of Light tab

Band: Isis 
Song: Garden of Light
Album: In the Absence of Truth
Tabbed by: djerzinski
Tuning: Standard (They are tuned in drop-b, but you can play it that way)

0:00Guitar I|----------------------|---------------------||----------------4-----|----------------2----||------4-------4---4---|------4-------4---4--||----6---6---6---------|----6---6---4--------||--4-------------------|--7------------------||----------------------|---------------------|
Keyboard (or guitar II, if you want...)|-----------------------|-----------------------||-----------------------|-----------------------||-----------------------|-----------------------||--11-------------------|--14-------16----------||-----------------------|-----------------------||-----------------------|-----------------------|
0:32Guitar II|-----------------------|-----------------------|x2|-----------------------|-----------------------||--6--------------------|-----------------------||-----------------------|-----------------------||-----------------------|-----------------------||-----------------------|-----------------------|
|-----------------------|-----------------------||-----------------------|-----------------------||--6--------9-----------|--11-------------------||-----------------------|-----------------------||-----------------------|-----------------------||-----------------------|-----------------------|
|-----------------------|-----------------------||-----------------------|-----------------------||--6--------9-----------|--11-------9----8-9----||-----------------------|-----------------------||-----------------------|-----------------------||-----------------------|-----------------------|
1:04Guitar I |-----------------------|----------------------||------------7---5------|---------------7--5---||-6---9---6-------------|-6-----9--------------||-----------------------|----------------------||-----------------------|----------------------||-----------------------|----------------------|
|---------------------|-----------------------||---------------------|-----------------------||-6--------------8-9--|-6---------------------||---------------------|-----------------------||---------------------|-----------------------||---------------------|-----------------------|
Guitar II|-----------------------||-----------------------| |-----------------------||----------7------------||-4--7--4-----7---5-----||-------2---------------|
1:20Guitar I (w/ tremolo picking)|---------|---------|----------------||---------|---------|----------------||-9-------|-11------|-13----11-9-8---||---------|---------|----------------||---------|---------|----------------||---------|---------|----------------|
|---------|----------|-----------|----------|-------------||---------|--12------|-10--9-----|--7-------|-------------||--9------|----------|-----------|----------|--8--9-------||---------|----------|-----------|----------|-------------||---------|----------|-----------|----------|-------------||---------|----------|-----------|----------|-------------|
Guitar II|-----------------------|-----------------------||-----12-----12---------|------12------14--12---||--13----13-----13------|--13------13-----------||-----------------------|-----------------------||-----------------------|-----------------------||-----------------------|-----------------------|
Guitar II|-----------------------||-----------------------| |-----------------------||----------7------------||-4--7--4-----7---5-----||-------2---------------|
|-----------------------||-----------------------| |-----------------------||-----6--------7--------||--4-----7--4-----7--5--||-----------2-----------|
at the end:|-----------------||-----------------| |-----------------||---7-------6/----||-----7--5--------||-----------------|
1:35Distortion|-----------------------|--------------------------|x3|-----------------------|--------------------------||-----------------------|--------------------------||-4-4--4-4--4-4--4-4----|-4-4--4-4--4-4------------||-4-4--4-4--4-4--4-4----|-4-4--4-4--4-4------------||-2-2--2-2--2-2--2-2----|-2-2--2-2--2-2--5/7-3/5\--|
|-----------------------|--------------------------||-----------------------|--------------------------||-----------------------|--------------------------||-4-4--4-4--4-4--4-4----|-4-4--4-4--4-4------------||-4-4--4-4--4-4--4-4----|-4-4--4-4--4-4------------||-2-2--2-2--2-2--2-2----|-2-2--2-2--2-2------------|
2:04|---------|---------|----------|---------------------||---------|---------|----------|---------------------||---------|---------|-7--------|---------------------||-9-------|-5-------|----------|--5-4----------4-----||---------|---------|----------|------2-5-2----4-----||---------|---------|----------|------------3--2-----|
|-----------------------|---------------------||-----------------------|---------------------||-----11--4---7---------|---------------------||-9---------------------|--5-4----------4-----||-----------------------|------2-5-2----4-----||-----------------------|------------3--2-----|
2:42|--------------------|-----------------------||--------------------|-----------------------||--------------------|-----------------------||--4--4--4-----------|-2---------5-----------||--4--4--4-----------|-2---------5-----------||--2--2--2--//x\\----|-0---------3-----------|
2:49|---------------------|-------------||---------------------|-------------||---------------------|-------------||--5-4----------4-----|-------------||------2-5-2----4-----|-------------||------------3--2-----|-------------|
|---------------------|x8|---------------------||---------------------||--5-4----------4-----||------2-5-2----4-----||------------3--2-----|
|-----------------|-----------------||-----------------|-----------------||--4--------------|--4--(4)---------||--4--------------|--4--(4)---------||--2--------------|--2--(2)---------||--2----/-5-/-7---|--2--(2)--/-5/7--|
|-------------------||-------------------||--6--6--6--6--(6)--||--6--6--6--6--(6)--||--4--4--4--4--(4)--||--4--4--4--4--(4)--|
Sorry, I didn't have time to tab it out entirely this week, but I'll finish it and fix all my mistakes, i promise ^^ If someone could transcribe the drum parts, it would be very nice, because I really suck at drum programmation.
Please rate this tab:
x1.0