It Dies Today – Requiem For Broken Hearts tab

Band- It Dies Today
Song- Requiem For Broken Hearts

|-----------------------------------------------------------|------------------------| 2x|-----------------------------------------------------------|------------------------||-----------------------------------------------------------|------------------------||-----------------------------------------------------------|---------0~----------0~-||-555577778888[13]131313[12]121212[15]1515158888[10]101010--|-0-0-0-0-0~--0-0-0-0-0~-||-----------------------------------------------------------|-0-0-0-0-0~--0-0-0-0-0~-|
* * * * * * * *|-----------------------------------------------------------------||-----------------------------------------------------------------||-----------------------------------------------------------------||-----------------------------------------------------------------||-555577778888[13]131313[15]151515[13]131313[15]151515[13]131313--||-----------------------------------------------------------------|
|-------------------------||-------------------------||-------------------------||---------0~----------0~--||-0-0-0-0-0~--0-0-0-0-0~--||-0-0-0-0-0~--0-0-0-0-0~--|
* * * * * * * * *|-----------------------------------------------------------------|-----------------------------------------------------------------|-----------------------------------------------------------------|-----------------------------------------------------------------|-555577778888[13]131313[12]121212[10]101010[12]121212[10]101010--|-----------------------------------------------------------------
|--------------------------||--------------------------||--------------------------||---------0~---------------||-0-0-0-0-0~-0-0-0--0-0-0--||-0-0-0-0-0~-0-0-0--0-0-0--|
* * * * * * * * * *[0:22]|---------------------------------------------------| 2x|---------------------------------------------------||---------------------------------------------------||---------------------------------------------------||-0-000-000-0-0-0-0-0-0-0000-0-000-000-0-0-0-0-0-0--||-0-000-000-0-0-0-0-0-0-0000-0-000-000-0-0-0-0-0-0--|
* *** *** * * * * * * **** * *** *** * * * * * *|--------------||--------------||--------------||-3-5-2-0------||--------------||--------------|
[0:39]|--------------------------------------| 4x|--------------------------------------||--------------------------------------||-----0-2h3p2-----0-2h3p2-----3-5-2-0--||-0-0---------0-0---------0-0----------||-0-0---------0-0---------0-0----------|
* * * * * *[0:59]|---------------------------------|________|---------------------------------| ||--------------------------8-7----| ||---------------8-7-10-8-7-----8--| ||-0-000-000-000-------------------| ||-0-000-000-000-------------------| |
* *** *** *** ||--------------------------------| ||--------------------------------| ||--------------------------------| ||---------------10-8-7---7-------| ||-0-000-000-000--------8---8-7---| ||-0-000-000-000------------------| |
* *** *** *** |Play these four and then repeat a second time|---------------------------------| ||---------------------------------| ||--------------------------8-7----| ||---------------8-7-10-8-7-----8--| ||-0-000-000-000-------------------| ||-0-000-000-000-------------------| |
* *** *** *** ||-------------------------------| ||-------------------------------| ||-------------------------------| ||---------------------------7b--| ||-0-000-000-000-8-7-5-8-7-5-----| _________||-0-000-000-000-----------------| * *** *** ***[1:19]
Slowed down.|---------------------------------| ___|---------------------------------| ||--------------------------8-7----| ||---------------8-7-10-8-7-----8--| ||-000-0-000-000-------------------| ||-000-0-000-000-------------------| |
*** * *** *** ||--------------------------------| ||--------------------------------| ||--------------------------------| ||---------------10-8-7---7-------| ||-000-0-000-000--------8---8-7---| ||-000-0-000-000------------------| |
*** * *** *** |Now Play these four and then repeat a second time|---------------------------------| ||---------------------------------| ||--------------------------8-7----| ||---------------8-7-10-8-7-----8--| ||-000-0-000-000-------------------| ||-000-0-000-000-------------------| |
*** * *** *** ||------------------------------| ||------------------------------| ||------------------------------| ||--------------------------7b--| ||-000-0-000-000-8-7-5-8-7-5----| ||-000-0-000-000----------------| ___|
*** * *** ***[1:47]|----------------------------------------------------| 2x|----------------------------------------------------||--------------------------------------10-9----------||-0-7-8-10-8-7-3-5-3-2---0-7-8-10-8-7------10-11-12--||----------------------4-----------------------------||----------------------------------------------------|
[2:12]|--------------------------------------| 8x|--------------------------------------||-10-9-7-10-9-7-10-9-7-10-9-7-10-9-----||----------------------------------10--||--------------------------------------||--------------------------------------|
[2:35]|----------------------------------------------------------------------------| 4x|----------------------------------------------------------------------------||----------------------------------------------------------------------------||-7-7777777777-7-9-10-10101010101010101010-10-12-9999999999----------10-9-9--||-5-5555555555-5-7--8--8-8-8-8-8-8-8-8-8-8—8--10-7777777777-8-888888--8-7-7--||-----------------------------------------------------------8-888888---------|
********** * * * * * * * * * * * ********** * ****** * * *|-------------------||-------------------||----9~-10~---------||-7~-7~--8~-9-10-9--||-5~--------7--8-7--||-------------------|
[3:21]|----------| 12x|----------||----------||----------||-0-0-0-0--||-0-0-0-0--| * * * *
[3:46] This interrupts the section above. Listen to the song to hear the transition.|------------------------------------------------------------------------|------------------------------------------------------------------------|------------------------------------------------------------------------|------------------------------------------------------------------------|-00-00--00-00---00-00-00--0000--00-00-0000--00-00-00--0000--00-00-0000--|-00-00--00-00---00-00-00--0000--00-00-0000--00-00-00--0000--00-00-0000-- ** ** ** ** ** ** * **** ** ** **** ** ** * **** ** ** ****
-----------------------------------------------|-----------------------------------------------|-----------------------------------------------|-------------------------------------------0~--|--00-00-00--0000--00-00-0000--00-00-00--0000~--|--00-00-00--0000--00-00-0000--00-00-00--0000~--| ** ** * **** ** ** **** ** ** * ****
[4:09]|-----------------------------||-----------------------------||-----------------------------||-3~--7~--3~--2~--3~--7~--3~--||-3~--7~--3~--2~--3~--7~--3~--||-3~--7~--3~--2~--3~--7~--3~--|
[4:32] Bass break here.
[4:55]|--------------||--------------||--------------||-7~-5~-3~-5~--||-5~-3~-1~-3~--||-5~-3~-1~-3~--|
The ending is weird. I could not get a solid chord setting for this.
|-------||-------||-8--5--| I just improvise with these chords.. That’s the best I could do.|-8--5--||-6--3--||-6--3--|
Please rate this tab:
x1.0