It Prevails – At Least Understand tab

This tab probably isn't %100 correct, however it is close enough to play with the song 
you wouldn't even notice. Happy Playing! (Oh, this is a mixed guitar part including both 
and lead, so you can play a little of both).


C# ||------------------------- -----------------------|G# ||------------------------- -----------------------|E ||-----0---------4-5-4----- ----0-----4-5-4----|B ||--3------3-------------3~ --5-----5--------0~--|F# ||------------------------- ----------------------|B ||------------------------- ---------------------|
--------------------- -----------------|--------------------- ------------------|-----5------4------5~ ---5----4-----0---|-5------5------(5)---- 5----5----(5)---|--------------------- ------------------|--------------------- ------------------|
------------------------- ---------------------|------------------------- ---------------------|-----0---------4-5-4----- ----0-----4-5-4----|--3------3-------------3~ --5-----5--------0~--|------------------------- ---------------------|------------------------- ---------------------|
--------------------- --------3---------|--------------------- -------------------|-----5------4------5~ ---5-------4-5-4---|-5------5------(5)---- 5----5-----------|--------------------- -------------------|--------------------- -------------------|
--------- -------- ------------ --------- ------|--------- -------- ------------ --------- ------|--------- -------- ------------ --------- ------|-3-3-3-3~ 3-3-3-3~ ----2-2-2-2~ -2-2-2-2~ ------|-3-3-3-3~ 3-3-3-3~ ----2-2-2-2~ -2-2-2-2~ ------|-3-3-3-3~ 3-3-3-3~ ----2-2-2-2~ -2-2-2-2~ ------|
-----------------------|-----------------------|-----------------------| x2-0-0-0----0-0-0~-------|-0-0-0----0-0-0~-------|-0-0-0----0-0-0~-------|
--------- -------- ------------ --------- ------|--------- -------- ------------ --------- ------|--------- -------- ------------ --------- ------|-3-3-3-3~ 3-3-3-3~ ----5-5-5-5~ -5-5-5-5~ ------|-3-3-3-3~ 3-3-3-3~ ----5-5-5-5~ -5-5-5-5~ ------|-3-3-3-3~ 3-3-3-3~ ----5-5-5-5~ -5-5-5-5~ ------|
------------------------|------------------------|------------------------|-7-7-7----7-7-7~ ---7-7-|7~-7-7-7----7-7-7~ ---7-7-|7~-7-7-7----7-7-7~ ---7-7-|7~
--------------- ---- -----------------------|--------------- ---- ----------------------|--------------- ---- ---------------------|-7-7-7----7-7-7~ ---5~ ----------2--3--2--3~---|-7-7-7----7-7-7~ ---5~ ----------2--3--2--3~---|-7-7-7----7-7-7~ ---5~ ----------2--3--2--3~---|
------------------------------------------------------------------|------------------------------------------------------------------|----------5-55-5-55-5-55--------------4--5-------4--5--7----------|-333333---5-55-5-55-5-55---3-5-----5---------5--------------------| x2-333333---3-33-3-33-3-33---3-5------------------------------------|-333333--------------------3-5------------------------------------|
------------------------- -------------------- --8--7---------------------|------------------------- -----------8---5-------------8--5---------------|-----0-----5-----4-----0 ------5------------5----------------5--4-------| x2--3-----3-----3-----3-- ---5-----5------------------------------------|------------------------- ------------------------------------------------|------------------------- ------------------------------------------------|
---------------------------------------- ----|---------------------------------------- ----|-----------------5------------4--------5~ ---|--7~------7----5------5----5-------3---5~ ---|5~--7~------7-----------5------------3---3~ ---|5~ x4--7~------7-----------5------------3---3~ ---|5~
on the fourth time end with
----------------|----------------|----------------|--3333--3--3--3-|--3333--3--3--3-|
------------------------- ------------------- --8--7--------------------|------------------------- ----------8---5-------------8--5--------------|-----0-----5-----4-----0 -----5-----------5----------------5--4-------| x2--3-----3-----3-----3-- ---5---5------------------------------------|------------------------- ----------------------------------------------|------------------------- ----------------------------------------------|
Please rate this tab:
x1.0