Itchy Poopzkid – Where Is The Happiness tab ver. 2

Tabbed by Sibbi-Guitar, but the Solo was incorrect, so I tabbed it here.
http://tabs.ultimate-guitar.com/i/itchy_poopzkid/where_is_the_happiness_tab.htm -- 
Original with the wrong Solo
Tuning: half step down


Intro + Verse I:

2x

D#----------------------------------------------------|A#----------------------------------------------------|F#----------------------------------------------------|C#--2-2-2-2------------------2-2-2-2------------------|G#----------3--3--3--3--3--3---------3--3--3--3--3--3-|D#----------------------------------------------------|
----------------------------------------------------|----------------------------------------------------|----------------------------------------------------|--2-2-2-2------------------2-2-2-2------------------|----------0--0--0--0--0--0---------0--0--0--0--0--0-|----------------------------------------------------|
beim 3ten Part:----------------------------------------------------|----------------------------------------------------|----------------------------------------------------|--2-2-2-2------------------2-2-2-2------------------|----------3--3--3--3--3--3---------3--3--3--3--3--3-|----------------------------------------------------|
----------------------------------------------------|----------------------------------------------------|----------------------------------------------------|--2-2-2-2------------------2-2-2-2------------------|----------0--0--0--0--0--0----------0---------------|----------------------------------------------------| ^abdämpfenGood morning innocenceWhy did you leave last nightSelf-doubts and disarrayAre always by my side
Welcome back loneliness Missed me a lot I guess One question that I got is: WHERE IS THE HAPPINESS? Bridge I:
7x 1x 7x 1x 7x 1x 7x 1x----------------------------------------------------|----------------------------------------------------|--5----9----5----9---------9---------9--------------|--5----9----5----9----7----9----7----9--------------|--3----7----3----7----7----7----7----7--------------|----------------------5---------5-------------------|
Verse II: 2x
--3--3--3--3--3--3--3--3--5--5--5--5--5--5--5--5----|--5--5--5--5--5--5--5--5--5--5--5--5--5--5--5--5----|--5--5--5--5--5--5--5--5--5--5--5--5--5--5--5--5----|--5--5--5--5--5--5--5--5--7--7--7--7--7--7--7--7----|--3--3--5--3--3--3--3--3--7--7--7--7--7--7--7--7----|--------------------------5--5--5--5--5--5--5--5----|
A deadheartet frame of mind It barely tries to hide Hatred and arrogance Never just fit me right But they're all just friends of mine Some are more some are less One thing is never there WHERE IS THE HAPPINESS? Refrain I:
----------------------------------------------------|----------------------------------------------------|--------------------5----------------9--------------|-----3--------------5----------------9--------------|-----3--------------3----------------7--------------|-----1----------------------------------------------|They drift away, to my dismay, they come and go just like they want
----------------------------------------------------|----------------------------------------------------|-------------------------------------5--------------|------7-----5---3--2---3-------------5--------------|------7-----5---3--2---3-------------3--------------|------5-----3---1--0---1----------------------------|But which one's gonna stay by me, I guarantee
----------------------------------------------------|----------------------------------------------------|---------------------------7~-----------------------|-5~------------------------7~-----------------------|-5~------------------------5~-----------------------|-3~-------------------------------------------------|one thing is never there, Where is the happiness today?
Wiederholung Intro: 1x Verse III:
--3--3--3--3--3--3--3--3--5--5--5--5--5--5--5--5----|--5--5--5--5--5--5--5--5--5--5--5--5--5--5--5--5----|--5--5--5--5--5--5--5--5--5--5--5--5--5--5--5--5----|--5--5--5--5--5--5--5--5--7--7--7--7--7--7--7--7----|--3--3--5--3--3--3--3--3--7--7--7--7--7--7--7--7----|--------------------------5--5--5--5--5--5--5--5----|
--3--3--3--3--3--3--3--3--5--5--5--5--5---------------|--5--5--5--5--5--5--5--5--5--5--5--5--5---------------|--5--5--5--5--5--5--5--5--5--5--5--5--5---------------|--5--5--5--5--5--5--5--5--7--7--7--7--7---------------|--3--3--5--3--3--3--3--3--7--7--7--7--7---------------|--------------------------5--5--5--5--5--(5--3--1--0)-| ^abdämpfen (Bass spielt Übergang)My brandnew loyaltyMeets my self-interestThe struggle a whole dayCannot decide who's best
Welcome back loneliness Who has given you access One questio that I got is: WHERE IS THE HAPPINESS?
Refrain II:----------------------------------------------------|----------------------------------------------------|--------------------5----------------9--------------|-----3--------------5----------------9--------------|-----3--------------3----------------7--------------|-----1----------------------------------------------|They drift away, to my dismay, they come and go just like they want
----------------------------------------------------|----------------------------------------------------|-------------------------------------5--------------|------7-----5---3--2---3-------------5--------------|------7-----5---3--2---3-------------3--------------|------5-----3---1--0---1----------------------------|But which one's gonna stay by me, I guarantee
----------------------------------------------------|----------------------------------------------------|--------------------------7-------------------------|-5------------------------7-------------------------|-5------------------------5-------------------------|-3--------------------------------------------------|one thing is never there, Where is the happiness today?
Bridge II:
----------------------------------------------------|----------------------------------------------------|----------------------------------------------------|--3---5---7~------3----5----7~----------------------|--3---5---7~------3----5----7~----------------------|--1---3---5~------1----3----5~----------------------|Along my way, I found some aid
----------------------------------------------------|----------------------------------------------------|----------------------------------------------------|-----3----5----7--------5---------------------------|-----3----5----7--------5---------------------------|-----1----3----5--------3---------------------------|But what they said came way too late
----------------------------------------------------|----------------------------------------------------|----------------------------------------------------|------3---5---7~---------3---5---7~-----------------|------3---5---7~---------3---5---7~-----------------|------1---3---5~---------1---3---5~-----------------|Still I don't know, what I just need
----------------------------------------------------|----------------------------------------------------|------------------------------------9---------------|---3----5----7------5---------------9---------------|---3----5----7------5---------------7---------------|---1----3----5------3-------------------------------|I hate this insecurity, tell me what's gonna be
Solo: (Chords wie beim Refrain)
----------------------------------------------------|----------------------------------------------------|--12~-14~-14~-14-------------12---------------------|-----------------10-10-12-14------14-12-10~--10--10-|----------------------------------------------------|----------------------------------------------------|
----------------------------------------------------|----------------------------------------------------|--------------------------------------------------9-|---12-12--12--12--14-12-10-12-10------10-12-10-12---|----------------------------------12----------------|----------------------------------------------------|
----------------------------------------------------|--------------------------------13-13-13-15-13-15---|-----9-12-9-12-14-14-14~--12-14---------------------|--12------------------------------------------------|----------------------------------------------------|----------------------------------------------------|
-----------------------------------------------------|--15-15-17h18h17-15~-17~-----------------------------|-----------------------------------------------------|-----------------------------------------------------|-----------------------------------------------------|-----------------------------------------------------|
One thing is never there Where is the happiness today? Intro 1 x wiederholen
Outro: C C-0---------------------0----------------------------|-1---------------------1----------------------------|-0---------------------0----------------------------|-2---------------------2----------------------------|-3---------------------3----------------------------|----------------------------------------------------| Good evening honesty, haven't seen you for days
Am Am-0----------------------0------------------------------|-1----------------------1------------------------------|-2----------------------2------------------------------|-2----------------------2------------------------------|-0----------------------0------------------------------|-------------------------------------------------------| my self-deception has, shown me so many ways
Dm F-1---------------------1-------------------------------|-3---------------------1-------------------------------|-2---------------------2-------------------------------|-0---------------------3-------------------------------|-----------------------3-------------------------------|-----------------------1-------------------------------| to keep away the pain, and all the awefulness
Dm F G C-1--------------------------1------------------3-----------0-|-3--------------------------1------------------3-----------1-|-2--------------------------2------------------0-----------0-|-0--------------------------3------------------0-----------2-|----------------------------3------------------2-----------3-|----------------------------1------------------3-------------| think that is how I pushed, that thing called happiness away.
Please rate this tab:
x1.0