Janes Addiction - Im Not An Addict tab

Track 1 ooooooh ooh... E||----------------------|----------------------|----------------------|B||----------------------|----------------------|----------------------|G||----------------------|----------------------|----------------------|D||----------------------|----------------------|----------------------|A||--6----6----7---------|--6----6----7---------|--6----6----7---------|E||----------------------|----------------------|----------------------|
----------------------|----------------------|----------------------|----------------------|----------------------|----------------------|----------------------|----------------------|----------------------|----------------------|----------------------|----------------------|--6----6----7---------|--6----6----7---------|--6----6----7---------|----------------------|----------------------|----------------------|
--------------------------|--------------------------|--------------------------|--------------------------|-----------------6--6--6--|--6--6--6--6--4--4--4--4--|--7--7--7--7--7--7--7--7--|--6--6--6--6--6--6--6--6--|--7--7--7--7--7--7--7--7--|--4--4--4--4--4--4--4--4--|--5--5--5--5--5--5--5--5--|--------------------------|
--------------------------|--------------------------|--------------------------|--------------------------|--4--4--4--4--4--4--4--4--|-----------------6--6--6--|--4--4--4--4--4--4--4--4--|--7--7--7--7--7--7--7--7--|--2--2--2--2--2--2--2--2--|--7--7--7--7--7--7--7--7--|--------------------------|--5--5--5--5--5--5--5--5--|
--------------------------|--------------------------|--------------------------|--------------------------|--6--6--6--6--4--4--4--4--|--4--4--4--4--4--4--4--4--|--6--6--6--6--6--6--6--6--|--4--4--4--4--4--4--4--4--|--4--4--4--4--4--4--4--4--|--2--2--2--2--2--2--2--2--|--------------------------|--------------------------|
--------------------------|--------------------------|--------------------------|--------------------------|--4--4--4--4--------------|-----------------6--6--6--|--4--4--4--4--4--4--4--4--|--7--7--7--7--7--7--7--7--|--2--2--2--2--2--2--2--2--|--7--7--7--7--7--7--7--7--|--------------------------|--5--5--5--5--5--5--5--5--|
--------------------------|--------------------------|--------------------------|--------------------------|--6--6--6--6--4--4--4--4--|--4--4--4--4--4--4--4--4--|--6--6--6--6--6--6--6--6--|--4--4--4--4--4--4--4--4--|--4--4--4--4--4--4--4--4--|--2--2--2--2--2--2--2--2--|--------------------------|--------------------------|
--------------------------|--------------------------|--------------------------|--------------------------|--4--4--4--4--------------|--------------------------|--4--4--4--4--4--4--4--4--|--2--2--2--2--4--4--4--4--|--2--2--2--2--2--2--2--2--|--2--2--2--2--4--4--4--4--|--------------------------|--0--0--0--0--2--2--2--2--|
--------------------------|--------------------------|--------------------------|--------------------------|--------------------------|--------------------------|--2--2--2--2--2--2--2--2--|--2--2--2--2--4--4--4--4--|--0--0--0--0--0--0--0--0--|--2--2--2--2--4--4--4--4--|--x--x--x--x--x--x--x--x--|--0--0--0--0--2--2--2--2--|
--------------------------|--------------------------|--------------------------|--------------------------|--------------------------|--------------------------|--2--2--2--2--2--2--2--2--|--2--2--2--2--2--2--2--2--|--0--0--0--0--0--0--0--0--|--0--0--0--0--0--0--0--0--|--x--x--x--x--x--x--x--x--|--x--x--x--x--x--x--x--x--|
--------------------------|--------------------------|--------------------------|--------------------------|--9--9--9--9--9--9--9--9--|--7--7--7--7--7--7--7--7--|--9--9--9--9--9--9--9--9--|--7--7--7--7--7--7--7--7--|--7--7--7--7--7--7--7--7--|--5--5--5--5--5--5--5--5--|--------------------------|--------------------------|
----------------------------------|----------------------------------|----------------------------------|----------------------------------|--16--16--16--16--16--16--16--16--|--16--16--16--16--16--16--16--16--|--16--16--16--16--16--16--16--16--|--16--16--16--16--16--16--16--16--|--14--14--14--14--14--14--14--14--|--14--14--14--14--14--14--14--14--|----------------------------------|----------------------------------|
--------------------------|--------------------------|--------------------------|--------------------------|--9--9--9--9--9--9--9--9--|--7--7--7--7--7--7--7--7--|--9--9--9--9--9--9--9--9--|--7--7--7--7--7--7--7--7--|--7--7--7--7--7--7--7--7--|--5--5--5--5--5--5--5--5--|--------------------------|--------------------------|
----------------------------------|----------------------------------|----------------------------------|----------------------------------|--16--16--16--16--16--16--16--16--|--16--16--16--16--16--16--16--16--|--16--16--16--16--16--16--16--16--|--16--16--16--16--16--16--16--16--|--14--14--14--14--14--14--14--14--|--14--14--14--14--14--14--14--14--|----------------------------------|----------------------------------|
--------------------------|-------------------|----------------------|--------------------------|-------------------|----------------------|--5--5--5--5--5--5--5--5--|--2----------------|----------------------|--5--5--5--5--5--5--5--5--|--2----------------|--2----2----2----2----|--3--3--3--3--3--3--3--3--|--0----------------|--2----2----2----2----|--------------------------|-------------------|--0----0----0----0----|
----------------------|----------------------|----------------------|----------------------|----------------------|----------------------|----------------------|----------------------|----------------------|--4----4----4----4----|--2----2----2----2----|--2----2----2----2----|--4----4----4----4----|--0----0----0----0----|--0----0----0----0----|--2----2----2----2----|--x----x----x----x----|--x----x----x----x----|
----------------------|----------------------|----------------------|----------------------|----------------------|----------------------|----------------------|----------------------|----------------------|--2----2----2----2----|--4----4----4----4----|--2----2----2----2----|--2----2----2----2----|--4----4----4----4----|--0----0----0----0----|--0----0----0----0----|--2----2----2----2----|--x----x----x----x----|
----------------------||----------------------||----------------------||--2----2----2----2----||--0----0----0----0----||--x----x----x----x----||
This is a hard one to find, if I missed something, let me know jesse722@hotmail.com
Tap to rate this tab
 
# A B C D E F G H I J K L M N O P Q R S T U V W X Y Z