Jars Of Clay - Dead Man Carry Me tab version 1

Band: Jars of Clay
Song: Dead Man Carry Me
Tabbed by: MIchael Stewart

his is a correction i made mistake and i knew it when i submitted it    this one is right

Intro/Verse:

-9-9-9-9--12-12-12-12--4444--9-9--9-9--12-12-12-12--4444--------|-9-9-9-9--12-12-12-12--4444--9-9--9-9--12-12-12-12--4444--------|----------------------------------------------------------------|----------------------------------------------------------------|----------------------------------------------------------------|----------------------------------------------------------------|
Chorus 1:-----------------------------------------------------------------|-----------------------------------------------------------------|-------------------------------------------------4-4-4-4-4-4-4-4-|-7-7-7-7-7-7-7-7-7-7-7-7-7-7-7-7-2-2-2-2-2-2-2-2-4-4-4-4-4-4-4-4-|-7-7-7-7-7-7-7-7-7-7-7-7-7-7-7-7-2-2-2-2-2-2-2-2-2-2-2-2-2-2-2-2-|-4-5-5-5-4-5-5-5-4-5-5-5-4-5-5-4-0-0-0-0-0-0-0-0-----------------|
-----------------------------------------------------------------|-6-6-6-6-6-6-6-6-------------------------------------------------|-6-6-6-6-6-6-6-6-7-7-7-7-7-7-7-7-2-2-2-2-2-2-2-2-4-4-4-4-4-4-4-4-|-4-4-4-4-4-4-4-4-7-7-7-7-7-7-7-7-2-2-2-2-2-2-2-2-4-4-4-4-4-4-4-4-|-----------------4-5-5-5-4-5-5-5-0-0-0-0-0-0-0-0-2-2-2-2-2-2-2-2-|
-----------------------|-----------------------|9999-8888-6666-4444-7--|9999-8888-6666-4444-7--|7777-6666-4444-2222-5--|
Bridge:-------------------------------------------------------------------------|-------------------------------------------------------------------------|------6-----6-----6-----6-----4-----4-----4-----4-----6-----6-----6----6-|-7-6-7-7-6-7-7-6-7-7-6-7-5-4-5-5-4-5-5-4-5-5-4-5-7-6-7-7-6-7-7-6-7-7-6-7-|-------------------------------------------------------------------------|-------------------------------------------------------------------------|
-----------------|-----------------|7777777777777777-5555555555555555-
Chorus 2:
-----------------------------------------------------------------|-----------------------------------------------------------------|-----------------------------------------------------------------|-7-7-7-7-7-7-7-7-7-7-7-7-7-7-7-7-2-2-2-2-2-2-2-2-2-2-2-2-2-2-2-2-|-7-7-7-7-7-7-7-7-7-7-7-7-7-7-7-7-2-2-2-2-2-2-2-2-2-2-2-2-2-2-2-2-|-4-5-5-5-4-5-5-5-4-5-5-5-4-5-5-5-0-0-0-0-0-0-0-0-0-0-0-0-0-0-0-0-|
----------------------------------|----------------------------------|-4-4-4-4-4-4-4-4--6-6-6-6-6-6-6-6-|-4-4-4-4-4-4-4-4--6-6-6-6-6-6-6-6-|-2-2-2-2-2-2-2-2--2-2-2-2-2-2-2-2-|----------------------------------|
--------------------------------------------------------------------------|--------------------------------------------------------------------------|-7-7-7-7-7-7-7-7-7-7-7-7-7-7-7-7-2-2-2-2-2-2-2-2-2-2-2-2-2-2-2-2----------|-7-7-7-7-7-7-7-7-7-7-7-7-7-7-7-7-2-2-2-2-2-2-2-2-2-2-2-2-2-2-2-2----------|-4-5-5-5-4-5-5-5-4-5-5-5-4-5-5-5-0-0-0-0-0-0-0-0-0-0-0-0-0-0-0-0----------|--------------------------------------------------------------------------|--------------------------------------------------------------------------|
----------------------------------|----------------------------------|-4-4-4-4-4-4-4-4--6-6-6-6-6-6-6-6-|-4-4-4-4-4-4-4-4--6-6-6-6-6-6-6-6-|-2-2-2-2-2-2-2-2--2-2-2-2-2-2-2-2-|----------------------------------|
-------------------------------------------------------------------------|-------------------------------------------------------------------------|---------------------------------4-4-4-4-4-4-4-4--6-6-6-6-6-6-6-6--------|7-7-7-7-7-7-7-7--2-2-2-2-2-2-2-2-4-4-4-4-4-4-4-4--6-6-6-6-6-6-6-6--------|7-7-7-7-7-7-7-7--2-2-2-2-2-2-2-2-2-2-2-2-2-2-2-2--6-6-6-6-6-6-6-6--------|5-5-5-5-5-5-5-5--0-0-0-0-0-0-0-0-----------------------------------------|
-----------------------------------------------|-----------------------------------------------|-9-9-9-9-8-8-8-8-6-6-6-6-4-4-4-4---------------|-9-9-9-9-8-8-8-8-6-6-6-6-4-4-4-4--7------------|-7-7-7-7-6-6-6-6-4-4-4-4-2-2-2-2--7------------|----------------------------------4---------/5-|
Song order: Intro/Verse:6x's Chorus1:1x's Intro/Verse:5x's Chorus1:1x's Bridge:1x's CHorus 2:1x's
Tap to rate this tab
 
# A B C D E F G H I J K L M N O P Q R S T U V W X Y Z