Jason Mraz - Absolutely Zero tab

Absolutely Zero
Jason Mraz


Try nyo to.

Standard Tuning
No Capo

Intro:

-0-------0-----------0-------0-3--0-------0-----------0-------0-3-|-----1-------1-----------1---1-1------1-------1-----------1---1-1-|---2---2---2---2-0h2---2---2-2-2----2---2---2---2-0h2---2---2-2-2-|-3---------------------------3-3--3---------------------------3-3-|------------------------------------------------------------------|------------------------------------------------------------------|
-------------------------------------------0---------0-|-----3-------3-------------1-----------1-------1-----1-|-----3-------3---------0---0---------2---2---2---0h2-2-|---5---5---5---5-------2---2-0h2---3-----------------3-|-5-------5-------5---3---3-------3---------------------|-------------------3-----------------------------------|
Verse:
-0-------0-----------0-------0-3--0-------0-----------0-------0-3-----------------|-----1-------1-----------1---1-1------1-------1-----------1---1-1-----3-3-3-----1-|---2---2---2---2-0h2---2---2-2-2----2---2---2---2-0h2---2---2-2-2-----3-3-3-----0-|-3---------------------------3-3--3---------------------------3-3---5-5-5-5-----2-|------------------------------------------------------------------5---5-5-5---3-3-|----------------------------------------------------------------------------3---3-|
-0-------0-----------0-------0-3-|-----1-------1-----------1---1-1-|---2---2---2---2-0h2---2---2-2-2-|-3---------------------------3-3-|---------------------------------|---------------------------------|
-1-1---1-1---1-|-1-1---1-1---1-|-2-2h3-3-3p2-2-|-1-1---1-1---3-|-3-3---3-3---3-|-1-1---1-1---1-|
-1-1-0-|-3-2-1-|-2-2-2-|-0-0-2-|-------|-------|
-3------|-3-3-1--|-5-3-3--| > only on 2 - transition into verse-5-5-3--|---5-1--|---3----|
-------1--1--0-------------------|-3--1--3--2--1--3-----1--1--1-1--|-3--0--2--2--2--5--3--3--2--2-2--|-5--2--0--0--2--5--5--3--3--3p1--|-5--3--------0--3--5--1--3--3-3--|-3--3--------------3--1--1--1-1--|
-----------------------1--------------1-----|-3--2-----1--1--1---1--3-----1--------3-----|-x--x--3--0--2--2---2--2--3--0--1--3--2--1--|-x--2--5--2--1--1h3-3--0--5--2--3--5--0--3--|-2--2--5--3--3--3---3-----5--3--3--5-----3--|-------3--3--1--1---1-----3--3--1--3-----1--|
----------1--1--------------------|-3--2--5--3--2--1--3-----1--1--1--|-x--x--x--2--2--2--5--3--3--2--0--|-x--2--5--0--0--2--5--5--3--3--2--|-2--2--5--------0--3--5--1--3--3--|----------------------3-----1--3--|
-1--1--0----------------------------------|-3--2--1--3-----1-----1--1--1-1-1--1-1-1--|-2--2--2--5--3--3--1--0--2--2h3p2--2h3p2--|-0--0--2--5--5--3--3--2--1--1-1-1--1-1-1--|-------0--3--5--1--3--3--3--3-3-3--3-3-3--|-------------3-----1--3--1--1-1-1--1-1-1--|
Tap to rate this tab
 
# A B C D E F G H I J K L M N O P Q R S T U V W X Y Z