Jay Chou – Bu Gong Ying De Yue Ding tab

http://alex-music-sheet.blogspot.com/

Bu gong ying de yue ding
Tag By : Alex

---------0-----0-------1------------------|------1--------------1-----3--------------|----0-------------2--------------0--------|--2------------3---------------0---0------|------------------------------------------|---------------------------3--------------|
---------3-----------------------------------|--3---------0-----1--------------------------|----------------------------0----------------|------0------------------2----2--------------|-------------------0-------------------------|--0------------------------------------------|
--0--1--3---------------------------------------|-------------1----1------3----------------------|-------------------0----------------------------|--3-------------------0-------------------------|------------------------------------------------|------------------3-----------------------------|
-0-------------------------0-----------------|------------------------1--------------------|------------0-------0------------------------|----2--3-------------------------------------|-3--------------3----------------------------|---------------------------------------------|
-0---------1-----------------------------------|---------1-----3-------------------------------|-----2-----------------0-----------------------|-3------------------0-----0--------------------|-----------------------------------------------|---------------3-------------------------------|
----------3-------------------------------------|--3-----------0----1----------------------------|----------------------------0-------------------|------0------------------2----2-----------------|--------------------0---------------------------|--0---------------------------------------------|
--0---1---3--------------------------------------|-----------------1----1----------3---------------|----------------------0--------------------------|--3---------------------------0------------------|-------------------------------------------------|----------------------3--------------------------|
-------------------------------------------------|-1-----------------------------------------------|------------0---------------0--------------------|----2--3----------2--3---------------------------|-3-------------3---------------------------------|-------------------------------------------------|
-------------------------------------------------|-----------------------0---1---------------------|------0-0-0-------2------------------------------|-------------------------------------------------|--3------------2---------------------------------|-------------------------------------------------|
http://alex-music-sheet.blogspot.com/ Go here for the complete version
Please rate this tab:
x1.0