Jay Chou - Shuo Hao De Xing Fu Nepromised Happiness tab

            http://popular-free-guitar-tab.blogspot.com/

FOR JAY CHOU MUSIC 


            http://popular-free-guitar-tab.blogspot.com/

JAY CHOU QING TIAN
 
Qing Tian
Album: Ye Hui Mei
Standard Tuning or Capo on 3rd

Chords:

Em - C - G - D


Intro:

|----------|-------------|----------|-------------||------3---|---------3---|------3---|-----3-----3-||----0---0-|-----------0-|----0---0-|-------------||--2-------|----0/1------|----------|-------------||----------|--3----------|----------|-------------||----------|-------------|--3-------|--3-----2----|
|----------|-------------|----------|----------------||------3---|---------3---|------3---|-------3------3-||----0---0-|-----------0-|----0---0-|-----0------0---||--2-------|----0/1------|----------|----------------||----------|--3----------|----------|----------------| |----------|-------------|--3-------|--3-------2-----|
|------------------|------------------------||-----3-3--------0-|-----3-3--------0-------||---------0-0--2---|---------0-0--2---2-0---||--2---------------|-----------0----------0-||-----------3------|------------------------||--0---------------|--3---------------------|
|------------------|----------------------||-----3-3--------0-|----0---0-1-0---1-0---||---------0-0--2---|--------------2-----0-||--2---------------|------0---0-----------||-----------3------|----------------------||--0---------------|--3-------------------|
|----------------------|----------|-----------||---------0-1-0--------|--0-0---0-|----0------||-----0-0-------2--0-2-|----------|--2---2--0-||--2-------------------|------0---|--0--------||-----------3----------|----------|-----------||--0-------------------|--3-------|-----------|
|----------------------|----------|-----------||---------3-1-0--------|--0-0---0-|----0------||-----0-0-------2--0-2-|----------|--2---2--0-||--2-------------------|------0---|--0--------||-----------3----------|----------|-----------||--0-------------------|--3-------|-----------|
|-----------------|---------------|---------------||-----------------|---------------|---------------||--0----0-0-0---0-|-----0-0-0---0-|-----0-0-0---0-||-------------4---|-----------4---|-----------4---||-----------------|--3------------|---------------||----0------------|---------------|--3------------|
|---------------|-----------------|-----------------|-------||-----------3-3-|--3--3-3-3-3-3-3-|--3--3-3-3-3-1-0-|--0----||--0--0-0-0-----|-----------------|-----------------|-----0-||--0------------|-----------------|-----------------|-------||---------------|-----------------|--3--------------|-------||---------------|--0--------------|-----------------|--3----|
|------------|---------------------|-----------------------||------------|--------3-1-0--------|----------------0------||--0---0---0-|----0-0-------0-0----|--0-0--0-0-0-0-----2-0-||----4---4---|--2------------------|----0-----------0------||------------|----------3----------|-----------------------||------------|--0-------------3----|-----------------------|
|-------------------|--2---3-----2-----||--------3-1-0------|----3---3-----3---||----0-0-------0-2--|----------2-----2-||--2-------------0--|------------------||----------3--------|------------------||--0----------------|------------------|
|------------------|--2/3--2------0-0-0------|----------------|--------||--0---1-0-----0-3-|---------3----------3-3--|--3-1-0---0-1-0-|------0-||----2-------0-----|------------0------------|--------2-------|----0---||------------------|----------------------0--|----------------|--------||------------------|----------------3--------|----------------|--------||--3-------3-------|--0----------------------|--------3-------|--3-----|
|-------------------|--3/5--2-3-3---3-|--3-3-----0--------------------2-||--0-2-4-0----0-2-4-|-----------------|------3-3---3-1----------0---3---||-------------------|-----------------|----------------0-2-0/2----0-----||-------------------|-----------------|--------------------0------------||--2--------2-------|-----------------|----3----------------------------||-------------------|-0-----------0---|---------------------------------|
|------------------|--2/3--2------0-0-0------|----------------|--------||--0---1-0-----0-3-|---------3----------3-3--|--3-1-0---0-1-0-|------0-||----2-------0-----|------------0------------|--------2-------|----0---||------------------|----------------------0--|----------------|--------||------------------|----------------3--------|----------------|--------||--3-------3-------|--0----------------------|--------3-------|--3-----|
|-------------------|-3/5--2-3-3----3-|--3-3-----0------------------------||--0-2-4-0----0-2-4-|-----------------|------3-3---3-1----------0----0----||-------------------|-----------------|----------------0-2-0/2----2----0--||-------------------|-----------------|--------------------0--------------||--2--------2-------|-----------------|----3------------------------------||-------------------|-0-----------0---|-----------------------------------|
|----------|-------------|----------|-------------||------3---|---------3---|------3---|-----3-----3-||----0---0-|-----------0-|----0---0-|-------------||--2-------|----0/1------|----------|-------------||----------|--3----------|----------|-------------||----------|-------------|--3-------|--3-----2----|
|----------|-------------|----------|----------------||------3---|---------3---|------3---|-------3------3-||----0---0-|-----------0-|----0---0-|-----0------0---||--2-------|----0/1------|----------|----------------||----------|--3----------|----------|----------------| |----------|-------------|--3-------|--3-------2-----|
Tap to rate this tab
 
# A B C D E F G H I J K L M N O P Q R S T U V W X Y Z