Jay Chou - Fa Ru Xue tab

Fa Ru Xue	
Album: November's Chopin
Standard Tuning

Intro:

|-------------0--|-----0------|------------0-|-----3-0----||--1-------1-----|--3----3--1-|--1------1----|--3-------1-||------0-2-------|------------|-----0-2------|------------||----------------|------------|--------------|------------||--3-------------|--3---------|--3-----------|--3---------||----------------|------------|--------------|------------|
verse:
|------0-0--------|-----0-3--0-|-----0-0---------|-----0-3--0---||--3----------1---|--3---------|--3----------1---|--3---------3-||--0--------0---0-|------------|--2--------2---2-|--------------||--2--------------|------------|--2--------------|--------------||--3--------------|------------|--0--------------|--------------||-----------------|--3---------|-----------------|--3-----------|
|------------|------------|---------|---------0----||--1---------|--1--3-1----|-----1-1-|--1-1--3----3-||----------2-|----------0-|--2------|--------------||-------3----|------------|---------|--------------||-----3------|--3---------|---------|--------------||--1---------|------------|--1------|----3---------|
|------0-0--------|-----0-3--0-|-------0---------|-----0-3/5--3-0-||--3----------1---|--3---------|--1--3-------1---|--3------------3||--0--------0---0-|------------|--2--------2---2-|----------------||--2--------------|------------|--2--------------|----------------||--3--------------|------------|--0--------------|----------------||-----------------|--3---------|-----------------|--3-------------|
|------------|------------|---------|---------0----||--1---------|--1--3-1----|-----1-1-|--1-1--3----3-||----------2-|----------0-|--2------|--------------||-------3----|------------|---------|--------------||-----3------|--3---------|---------|--------------||--1---------|------------|--1------|----3---------|
Bridge:
|-----------------0-|-----------------0-|-----0--0-0-||--1--1--1-1----1---|--1--1--1-1----1---|--1---------||-------------2-----|-------------2-----|------------||-------------------|-------------------|------------||--0----------------|--3----------------|------------||-------------------|-------------------|--1---------|
Chorus:
|--3/5--3-0-0---|--------0---0-3-|--5--3-3-|------0--3/5-3-0-3---||-------------3-|----1-3---3-----|---------|--1-3----------------||---------------|--0-------------|---------|---------------------||---------------|----------------|---------|---------------------||---------------|--------3-------|---------|------0--------------||-----------3---|----------------|--3------|-----------------3---|
|--------------|---------|------------|--0-----||------1-------|---------|--1--1------|----3---||--0-2----2--0-|-----0---|--------2-2-|--------||--------------|--2----2-|------------|--------||--------------|--3------|------------|--------||------1-------|---------|----1-------|----3---|
|--------0---0-3-|--5--3-3-|------0--3/5-3-0-3---||----1-3---3-----|---------|--1-3----------------||--0-------------|---------|---------------------||----------------|---------|---------------------||--------3-------|---------|------0--------------||----------------|--3------|-----------------3---|
|--------------|---------|------------|--0-----||------1-------|---------|--1--1------|----3---||--0-2----2--0-|-----0---|--------2-2-|--------||--------------|--2----2-|------------|--------||--------------|--3------|------------|--------||------1-------|---------|----1-------|----3---|
Outro:
|--------0---0-3-|--5--3-3-|------0--3/5-3-0-3---||----1-3---3-----|---------|--1-3----------------||--0-------------|---------|---------------------||----------------|---------|---------------------||--------3-------|---------|------0--------------||----------------|--3------|-----------------3---|
|--------------|---------|------------|-----------|---0-----||------1-------|---------|--1--1------|--1-1-0---0|---1-----||--0-2----2--0-|-----0---|--------2-2-|--------2--|---0-----||--------------|--2----2-|------------|-----------|---2-----||--------------|--3------|------------|-----------|---3-----||------1-------|---------|----1-------|----3------|---------|
Tap to rate this tab
 
# A B C D E F G H I J K L M N O P Q R S T U V W X Y Z