Jbo - Medtl Gschdanzl tab

Title: Medtl Gschdanzl
Artist: J.B.O.
Tuning: Standard (EADGBE)

Tabbed by: Moritz Fink



Chorus I:

|---------------------------------||---------------------------------||-------------4-------------------||----------6-----7-6-4------------||---4-6-7--------------7----------||-7-------------------------------|
|---------4-4-----------------------------------------------------------||-------------7-7-5-5-4-4---------4-4---4---------------4-4---4---------||-4-6-4-4-----------------6-6-4-4-----4---4-----4-6-4-4-----4---4-------||-------------------------------------------7---------------------7-----||-----------------------------------------------------------------------||-----------------------------------------------------------------------|
_________________________ ____________________|1. |2.|-------------------------| |-----------4--------||---------5-5---5---------| |-----4-5-------7-5--||-4-6-4-4-----4---4-------| |-4-6----------------||-------------------6-----| |--------------------||-------------------------| |--------------------||-------------------------| |--------------------|
|---------------------------------||---------------------------------||-------------4-------------------||----------6-----7-6-4------------||---4-6-7--------------7----------||-7-------------------------------|
Strophe I: E Bb Die Dolly Buster hat Glueck im Unglueck ghabt, Bb E Bei am Unfall im Verkehr. E Bb Es is ihr nix passiert, sie is ja gut geschuetzt, Bb E Sie traegt zwaa Airbags vor sich her.
|---------------------------------||---------------------------------||-------------4-------------------||----------6-----7-6-4------------||---4-6-7--------------7----------||-7-------------------------------|
Strophe II: Auch des Bluemchen is etz a Superstar, Und geht wahrscheinlich nia bankrott. Weil wanns mim Techno amoi vorbei is, Na singts an Fleuro-Werbespot. Chorus II:
|---------------------------------||---------------------------------||-------------4-------------------||----------6-----7-6-4------------||---4-6-7--------------7----------||-7-------------------------------|
|---------4-4-----------------------------------------------------------||-------------7-7-5-5-4-4---------4-4---4---------------4-4---4---------||-4-6-4-4-----------------6-6-4-4-----4---4-----4-6-4-4-----4---4-------||-------------------------------------------7---------------------7-----||-----------------------------------------------------------------------||-----------------------------------------------------------------------|
_________________________ ____________________|1. |2.|-------------------------| |-----------4--------||---------5-5---5---------| |-----4-5-------7-5--||-4-6-4-4-----4---4-------| |-4-6----------------||-------------------6-----| |--------------------||-------------------------| |--------------------||-------------------------| |--------------------|
|------------------------------------------------------------------------------||-------------------------------------11---12-11----12-11-------11-------------||-11-10--------------10---11-10-11-13------------13-------13-11----13-11-10----||-------13---11--13---------------------------------------------------------13-||------------------------------------------------------------------------------||------------------------------------------------------------------------------|
|------------------------------------------------------||--------------------------11---12-11----12-11---------||---------10---11-10-11-13------------13-------13-11---||-11---13----------------------------------------------||------------------------------------------------------||------------------------------------------------------|
|---------------------------------||---------------------------------||-------------6-------------------||----------8-----9-8-6------------||---6-8-9--------------9----------||-9-------------------------------|
Strophe III: F# C# Neulich am Flughafen bin i verhaftet woarn, C# F# Weil in meim Wecker, da war Kokain. F# C# I hobs erst garned backt, dann is ma a Licht aufganga, C# F# Der Wecker hiess ja Konstantin.
|---------------------------------||---------------------------------||-------------6-------------------||----------8-----9-8-6------------||---6-8-9--------------9----------||-9-------------------------------|
Strophe IV: I fuercht, die Backstreet Boys wern singa, Bis das old san, grau und fett. I sog bloss: Bittschoen nehmts euch a Beispui, An die Kollegen vo Take That. Chorus III:
|---------------------------------||---------------------------------||-------------6-------------------||----------8-----9-8-6------------||---6-8-9--------------9----------||-9-------------------------------|
|---------6-6-----------------------------------------------------------||-------------9-9-7-7-6-6---------6-6---6---------------6-6---6---------||-6-8-6-6-----------------8-8-6-6-----6---6-----6-8-6-6-----6---6-------||-------------------------------------------9---------------------9-----||-----------------------------------------------------------------------||-----------------------------------------------------------------------|
_________________________ ____________________|1. |2.|-------------------------| |-----------6--------||---------7-7---7---------| |-----6-7-------9-7--||-6-8-6-6-----6---6-------| |-6-8----------------||-------------------8-----| |--------------------||-------------------------| |--------------------||-------------------------| |--------------------|
|----------------------------------------------------------------------------||-----------------------------------13---14-13----14-13-------13-------------||-13-12------------12---13-12-13-15------------15-------15-13----15-13-12----||-------15--13--15--------------------------------------------------------15-||----------------------------------------------------------------------------||----------------------------------------------------------------------------|
|-----------------------------------------------------||--------------------------13---14-13----14-13--------||---------12---13-12-13-15------------15-------15-13--||-13---15---------------------------------------------||-----------------------------------------------------||-----------------------------------------------------|
|--------------------------------------||--------------------------------------||-----------------8--------------------||-------------10-----11-10-8-----------||----8-10-11-----------------11--------||-11-----------------------------------|
Tap to rate this tab
 
# A B C D E F G H I J K L M N O P Q R S T U V W X Y Z