Jean Leloup – Sang Dencre tab

#----------------------------------PLEASE NOTE--------------------------------#
#This file is the author's own work and represents their interpretation of the#
#song. You may only use this file for private study, scholarship, or research.#
#-----------------------------------------------------------------------------#

From: "olivier mathurin" 
Subject: l/leloup_jean/sang_dencre.tab
Date: Fri, 12 Jun 1998 06:26:22 PDT

Sujet: Sang d'encre
Artiste: Jean Leloup
Album: Le D?me
Transcrit par: Olivier Mathurin
Commentaires:leconard@hotmail.com

|-----------------------------|--------------------------||-----------------------------|---------------3----------||-------------------0-----2---|---4---4---4---4---4---2--||-------------2---------------|--------------------------||-----------------------------|--------------------------||-----------------------------|--------------------------|
|---------------------------|-------------------------||---------------3---3---3---|-3-----------3-----------||-------2-------2---2---2---|-2---0-------2---0-------||---0-------0---------------|---------2-----------2---||---------------------------|-------------------------||---------------------------|-------------------------|
|----------------------------|--------------------------||----------------------------|---------------3----------||--------------------0----2--|---4---4---4---4---4---2--||---2------2----2------------|--------------------------||----------------------------|--------------------------||---0------0-----------------|--------------------------|
|---------------------------|-------------------------||---------------3---3---3---|-3-----------3-----------||-------2-------2---2---2---|-2---0-------2---0-------||---0-------0---------------|---------2-----------2---||---------------------------|-------------------------||---------------------------|-------------------------|
|----------------------------|------------------------------||----------------------------|------------------------------||--------------------0----2--|------------------------------||---2------2----2------------|------------------------------||----------------------------|--------2----4-----5----------||---0------0-----------------|---0--------------------------| Je me suis fait un sang d'en-cre pour Je me suis fait un sang d'en-cre pour
|------------------------------|------------------------------||------------------------------|------------------------------||------------------------------|-----------------4----2-------||-------------4-----5----------|-------------4----------------||-------0----------------------|---------0----------------0---||------------------------------|------------------------------| toi Comme u - ne pieuvre dans un gros bac chi - toi Comme u - ne pieuvre dans un gros bac chi -
|----------------------|------------------------------||----------------------|------------------------------||----------------------|------------------------------||-------4--5-----------|--------------4----5----------||----2-----------------|---------2--------------------||-0--------------------|---0--------------------------| nois ? voir ta gueule ce ma - tin je te nois ? voir c'matin les bo - bos sur tes
|----------------------------|------------------------------||----------------------------|------------------------------||----------------------------|-----------------4----2-------||------4--5------------------|------------4-----------------||---0------------------------|-------0-------------------0--||----------------------------|------------------------------| crois J'ai bien fait de pen - ser tr?s fort ? bras J'ai bien fait de pen - ser tr?s fort ?
|---------------------------|------------------------------||---------------------------|----------------3-------------||---------------------------|----------0-------------------||--------4--5---------------|-----4------------------------||-----2---------------------|-3----------------------------||--0------------------------|------------------------------| toi J'ai en - voy - ? des chansons dans les toi Que nous soy - ons a - mis ou a - mou -
|----------------------------|--------------------------------||-----------3----------------|--------------------------------||--------0-------------------|------------------2-------------||-----4----------------------|-----------2--------------------||--3-------------------------|------0-------------------------||----------------------------|--------------------------------| airs En es - p? - rant qu'un pi - geon voy - a - reux Mais main - te - nant nos coeurs battent ? deux
|-------------------------|--------------------------------||-------1--3---1--/--0----|----------------------0---------||-------------------------|--------------------------------||----2--------------------|---------0------2---------------||-0-----------------------|--------------------------------||-------------------------|--3-----------------------------| geur te les chan - te - rait par jour ou noir - Je te com - prends beau-coup plus que tu
|----------------------|--------------------------------||-------0--------------|--------------------------------||-----2----------------|------------0--------2----------||---0------------------|--------------------------------||----------------------|--------3-----------------------||-3--------------------|---1----------------------------| ceur jusqu'? c'que tu re - viennes________ par i - crois A - lors s'il te pla?t la pro - chai - ne
|---------------------------|--------------------------------||---------1---3---1---------|-------------0------------------||---------------------------|---------2----------------------||-----2---------------------|-----0--------------------------||-0-------------------------|--------------------------------||---------------------------|-3------------------------------| ci Par i - ci Par i - fois Ap - pelle - moi Ap - pelle -
|----------------------------|--------------------------------||----------------------------|---------1--3-----5-------------||-------------0---2----------|--------------------------------||----------------------------|-----2--------------------------||-----3---3------------------|--0-----------------------------||-1--------------------------|--------------------------------| ci moi
|-------------------------|--------------------------------||---------5-------3----1--|----------------0---------------||-------------------------|---------2----------------------||-------------------------|----0---------------------------||-----0-------------------|--------------------------------||-------------------------|-3------------------------------| Ne me ra - conte plus ja - En - fin au - jour - d'hui te
|-------------------------|-------------------------------||-------------------------|--------------1----------------||---------------------2---|-------------------------------||---------------5---------|---------2---------------------||---------3---------------|---0---------------------------||---1---------------------|-------------------------------| mais de sa - lades Dis - moi toujours quand tu re - voi - l? ? voir les ci - ca - tri -
|-------------------------|-------------------------------||-----------1----3--/--1--|----------------0--------------||-------------------------|------------2------------------||-----2-------------------|--------0----------------------||-0-----------------------|-------------------------------||-------------------------|---3---------------------------| te sens ma - lade J'ai une ? - pau - le bour - ces sur tes bras J'ai bien fait de pen - ser
|-------------------------|-------------------------------||-------------------------|--------------------1----------||-----------------2-------|-------------------------------||------------5------------|-------------2-----------------||--------3----------------|---0---------------------------||---1---------------------|-------------------------------| r?e de pou - voirs Il pa-ra?t qu'elle aide ? pleu - tr?s fort ? toi Je me suis fait un sang
|-------------0--------------|-------------------------------||-----------------1-----3----|---------------3---------------||--------------------------0-|-----------0-------------------||-------2--------------------|-------4-----------------------||--0-------------------------|---3---------------------------||----------------------------|-------------------------------| rer dans le noir Dans le noir d'encre pour toi
|-------------------------|---------------0----------------||----------3--------------|--------------------------------||-------0-----------------|-------------------0------------||----4--------------------|-----------4--------------------||-------------------------|-------2------------------------||-------------------------|---0----------------------------|
|---0---------------------|--------------------------------||-------------------------|-----------------0--------------||---0--------------0--2---|------------2-------------------||---4-----------2---------|-------0------------------------||---2---------------------|--------------------------------||---0---------------------|---3----------------------------| Je me suis fait un sang
|-------------------------|-------------------------------||-------------------------|------------------1------------||--------------------2----|-------------------------------||--------------5----------|-------------------------------||--------3----------------|---0----0--0-------------------||--1----------------------|-------------------------------| d'en - cre pour toi Comme u-ne pieuvre dans un
|-------------------------|-------------------------------||-------------------3-1---|---------------0---------------||-----------------------2-|----------2--------------------||-------------------------|-----0-------------------------||---0---------0-----------|-------------------------------||-------------------------|-3-----------------------------| gros bac chi - nois ? voir c'ma - tin les bo -
|-------------------------|-------------------------------||-------------------------|-----------------1-------------||-------------------2-----|-------------------------------||-------------5-----------|-------------------------------||-------3-----------------|---0----0----0-----------------||-1-----------------------|-------------------------------| bos sur tes bras J'ai bien fait de pen - ser
|-------------------------|-------------------------------||------------------3-1----|--------------3----------------||-----------------------2-|----------0--------------------||-------------------------|------4------------------------||--0-----------0----------|--3----------------------------||-------------------------|-------------------------------| tr?s fort ? toi Je me suis fait un sang
|-------------------------|-------------------------------||-------------------------|---------------3---------------||-------------------0--0--|-----------0-------------------||--------------4----------|------4------------------------||---------0---------------|-------------------------------||-------------------------|-0-----------------------------| d'en - cre pour toi Je me suis fait un sang
|-------------------------|-------------------------------||-------------------------|--------------3----------------||--------------------0-0--|----------0--------------------||--------------4---------2|------4------------------------||-------------------------|--3----------------------------||--0-----0----------------|-------------------------------| d'en - cre pour toi Je me suis fait un sang
|-------------------------|-------------------------------||-------------------------|-------------------------------||-------------------2--0--|----------------0--------------||--------------4----------|-------------------------------||---------0---------------|-------------------------------||-------------------------|-0-------0---------------------| d'en - cre pour toi Le col-lier____ que tu m'a -
|-------------------------|-------------------------------||-------------------------|--------------1----------------||--------------------0----|---------2----------0-------2--||--------0-----0----------|------2------------------------||-------------------------|--0----------------------------||---3---------------------|-------------------------------| vais fa - bri - qu? Hi-er ? cinq heures moins
|-------------------------|-------------------------------||---------------------1---|-------------------0-----------||----------------0--------|-------------------0-----------||----------2-------------0|-------------------------2--0--||---3---------------------|-------------------------------||-------------------------|--0-----0-----0----------------| quart s'est bri - s? Que s'est - il pas - s? ?
|--------------------------|------------------------------||---------------------0----|----------0----1-----------3--||---------------2--------0-|------------------------------||--------0-----------------|------2-----------------------||--------------------------|--0---------------------------||--3-----------------------|------------------------------| cinq heures moins quart Pro - ba - ble - ment qu'on te
|--0------------------------|-------------------------------||--------------------3------|-------------------------------||--------------0----------0-|--------------0----------------||---------4-------------4---|----------4--------------------||---------------------------|------2------------------------||---------------------------|--0----------------------------| vou - lait du mal Je me suis fait un sang
|---------------------------|-------------------------------||------------------0--------|------------0----1---------3---||-------------2-------------|-------------------------------||--------0------------------|-------2-----------------------||---------------------------|-0-----------------------------||---3------------------3--5-|-------------------------------| d'en - cre pour toi Comme u-ne pieuvre dans un
|-------------------------|------------------------------||---------------3---------|------------------------------||----------0----------0---|---------------0--------------||------4-----------2------|-----------4------------------||--3----------------------|-----2------------------------||-------------------------|-0----------------------------| gros bac chi - nois ? voir c'ma-tin tes bo -
|-------------------------|------------------------------||--------------0----------|-------------0----1-----------||----------2-------0------|------------------------------||------0------------------|-------2----------------------||-------------------------|-0----------------------------||--3----------------------|------------------------------| bos sur tes bras J'ai bien fait de pen - ser
|-------------------------|------------------------------||--------------1----------|------------------3--3--------||----------0--------------|------0--2--4--4--4--4--4--2--||------2------------------|---2--------------------------||--3----------------------|------------------------------||-----------------0---3---|---0--------------------------| tr?s fort____ ? toi
|--------------------------|------------------------------||--------------------------|------------------------------||---------2---2--2---0-----|---0--------------------------||-----0------------------4-|--------4----2----4----4------||--------------------------|----------------------------2-||--------------------------|------------------------------|
|---------------||---------------||---0-----------||---2-----------||---------------||---0---------1-|
Please rate this tab:
x1.0