Jean Leloup - Comme La Vie Est Laide tab

comme la vie est laide tab by jean leloup


|---9-11----9-11---9------5-7----5-7---7-||-9-------9------9------5------5-----5---||----------------------------------------||----------------------------------------|x 21|----------------------------------------||----------------------------------------|
|-------------------------------------||-------------------------------------||-------------------------------------||----2------/7-6------------/7-6------||-/4---4---------0------/4-------0----||-------------------------------------|
|-------------------||-------------------||-------------------||----2------/7-6----||-/4---4---------0--||-------------------|
|-------------------||-------------------||-------------------||----2------/7-6----||-/4---4---------0--||-------------------|
|---9-11----9-11---9------5-7----5-7---7-||-9-------9------9------5------5-----5---|x2|----------------------------------------||----------------------------------------||----------------------------------------|
|-----------------------------||-----------------------------||-----------------------------||---/7-6------------/7-6------||-4------0------/4-------0----||-----------------------------|
|---------------------||---------------------||---------------------||----2------/7-6------||-/4---4---------0----||---------------------|
|-------------------||-------------------||-------------------||----2------/7-6----||-/4---4---------0--||-------------------|
|---------------||---------------||-6--9----------||-6--9--6--9----|x 3|-4--7--6--9----||-------4--7----|
|---9-11----9-11---9------5-7----5-7---7-||-9-------9------9------5------5-----5---||----------------------------------------|x 4|----------------------------------------||----------------------------------------||----------------------------------------|
|-----------------------------||-----------------------------||-----------------------------||---/7-6------------/7-6------||-4------0------/4-------0----||-----------------------------|
|---------------------||---------------------||---------------------||----2------/7-6------||-/4---4---------0----||---------------------|
|-------------------||-------------------||-------------------||----2------/7-6----||-/4---4---------0--||-------------------|
|---------------||---------------||-6--9----------||-6--9--6--9----|x 3|-4--7--6--9----||-------4--7----|
|---9-11----9-11---9------5-7----5-7---7-||-9-------9------9------5------5-----5---||----------------------------------------|x 4|----------------------------------------||----------------------------------------||----------------------------------------|
steve,,, pompom020366@hotmail.com pompom@sympatico.ca
Tap to rate this tab
 
# A B C D E F G H I J K L M N O P Q R S T U V W X Y Z