Jean Leloup - Ma Poupe De Porcelaine tab

   ma poupée de porcelaine tab by jean leloup

|---------------------------------------------------------||---------------------------------------------------------||---7--7--7------6-------------7-----------7------------7-||---7--7--7-0-0----7--7-7-0-0----9-9-9-0-0---9-9-9-0-0----|x 2|---5--5--5-0-0----7--7-7-0-0----9-9-9-0-0---9-9-9-0-0----||------------------5--5-5--------7-7-7-------7-7-7--------|
|----------------------------------||----------------------------------||---7--7--7------6-------------7---||---7--7--7-0-0----7--7-7-0-0----9-||---5--5--5-0-0----7--7-7-0-0----9-||------------------5--5-5--------7-|
|-----------------------||-----------------------||----7----9-7--7--------||----7-------9---9-0----||-/9--0-9--------9-0----||-----------------------|
|------------------------------------------------------------||----------------------------------------------------------7-||---7--7--7------6-------------7-----------7---7-------------||---7--7--7-0-0----7--7-7-0-0----9-9-9-0-0---9---9-9-9-0-0---||---5--5--5-0-0----7--7-7-0-0----9-9-9-0-0---9---9-9-9-0-0---||------------------5--5-5--------7-7-7-------7---7-7-7-------|
|---------------------------------------------------------||---7--7--7---------------------------------------------7-||---7--7--7------6-------------7-----------7--------------||---7--7--7-0-0----7--7-7-0-0----9-9-9-0-0---9-9-9-0-0----||---5--5--5-0-0----7--7-7-0-0----9-9-9-0-0---9-9-9-0-0----||------------------5--5-5--------7-7-7-------7-7-7--------|
|--------------------------------------||---7--7--7----------------------------||---7--7--7------6-------------7-------||---7--7--7-0-0----7--7-7-0-0----9-9-9-||---5--5--5-0-0----7--7-7-0-0----9-9-9-||------------------5--5-5--------7-7-7-|
|-----------------------||-----------------------||----7----9-7--7--------||----7-------9---9-0----||-/9--0-9--------9-0----||-----------------------|
|---------------------------------------------------------||---------------------------------------------------------||---7--7--7------6-------------7-----------7------------7-||---7--7--7-0-0----7--7-7-0-0----9-9-9-0-0---9-9-9-0-0----||---5--5--5-0-0----7--7-7-0-0----9-9-9-0-0---9-9-9-0-0----||------------------5--5-5--------7-7-7-------7-7-7--------|
|------------------------------------------------------------||----------------------------------------------7---7-------7-||---7--7--7------6-------------7-7--7-7-0-0-7----7-7-7-0-7-7-||---7--7--7-0-0----7--7-7-0-0----7--7-7-0-0-7----7---7-0-7---||---5--5--5-0-0----7--7-7-0-0----5--5-5----------5---5-------||------------------5--5-5------------------------------------|
|---------------------------------------------------------||---------------------------------------------------------||---7--7--7------6-------------7-----------7------------7-||---7--7--7-0-0----7--7-7-0-0----9-9-9-0-0---9-9-9-0-0----||---5--5--5-0-0----7--7-7-0-0----9-9-9-0-0---9-9-9-0-0----||------------------5--5-5--------7-7-7-------7-7-7--------|
|------------------------------------------------------------||------------------------------------------------------------||---7--7--7------6-------------7-----------7---7-----------7-||---7--7--7-0-0----7--7-7-0-0----9-9-9-0-0---9---9-9-9-0-0---||---5--5--5-0-0----7--7-7-0-0----9-9-9-0-0---9---9-9-9-0-0---||------------------5--5-5--------7-7-7-------7---7-7-7-------|
|-------------------------------------------------------||-------------------------------------------3-----------||-------------6------------4------------4-4-4---4-------||---9-9-9-0-0---7--7-7-0-0---5--5-5-0-0-5-5---5-5-0-0---||---9-9-9-0-0---7--7-7-0-0---5--5-5-0-0-------5-5-0-0---||---7-7-7-------5--5-5-------3--3-3---------------------|
|-------------------------------------------------------||--------------------------7------------7------8-7-7----||-------------6--------------7--7-7-0-0---7-7--7-7-7--0-||---9-9-9-0-0---7--7-7-0-0---7--7-7-0-0---7-7----7-7--0-||---9-9-9-0-0---7--7-7-0-0---5--5-5-------5-5----5-5----||---7-7-7-------5--5-5----------------------------------|
|-------------------------------------------------------||------------------------------------------8------------||---7--7--7------6-------------7-------------9-9-9-0-0--||---7--7--7-0-0----7--7-7-0-0----9-9-9-0-0---9-9-9-0-0--||---5--5--5-0-0----7--7-7-0-0----9-9-9-0-0---7-7-7------||------------------5--5-5--------7-7-7------------------|
|----------------------------------------------------------||---------------------------------------------7------------||---7--7--7------6-------------7--------------7------------||---7--7--7-0-0----7--7-7-0-0----9-9-9-0-0------9-9--0-0---||---5--5--5-0-0----7--7-7-0-0----9-9-9-0-0------9-9--0-0---||------------------5--5-5--------7-7-7------7--------------|
|---------------------------------------------------------||---------------------------------------------------------||---7--7--7------6-------------7-----------7------------7-||---7--7--7-0-0----7--7-7-0-0----9-9-9-0-0---9-9-9-0-0----|x 2|---5--5--5-0-0----7--7-7-0-0----9-9-9-0-0---9-9-9-0-0----||------------------5--5-5--------7-7-7-------7-7-7--------|
|----------------------------------||----------------------------------||---7--7--7------6-------------7---||---7--7--7-0-0----7--7-7-0-0----9-||---5--5--5-0-0----7--7-7-0-0----9-||------------------5--5-5--------7-|
|-----------------------||-----------------------||----7----9-7--7--------||----7-------9---9-0----||-/9--0-9--------9-0----||-----------------------|
|---------------------------------------------------------||---------------------------------------------------------||---7--7--7------6-------------7-----------7--------------||---7--7--7-0-0----7--7-7-0-0----9-9-9-0-0---9-9-9--------||---5--5--5-0-0----7--7-7-0-0----9-9-9-0-0---9-9-9--------||------------------5--5-5--------7-7-7-------7-7-7--------|
steve, pompom020366@hotmail.com
Tap to rate this tab
 
# A B C D E F G H I J K L M N O P Q R S T U V W X Y Z