Jeff Buckley - Grace tab

Grace by Jeff Buckley (update: fixed minor errors)
By Marshtin@hotmail.com

Standard tuning!!

Intro:

|-------1---------------------1-----3p1----------------------||-----1---3p1---------------1---3p1-----3p1------------------||---1---------3p13p1p31---1-----------------3p1--------------||-3---------------------3------------------------------------||------------------------------------------------------------||------------------------------------------------------------|
|-------3------------------3-----5-3------------0~-----------||-----3---5-3------------3---5-3-----5-3--------0~-----------||---3---------535353---3-----------------5-3----0~-----------||-5------------------5--------------------------2~-----------||-----------------------------------------------2~-----------||-----------------------------------------------0~-----------|
second intro:
|-------------------------------------------------------15---||-14h15-15-14-------14h15-15-14-------14h15-15-14-14-14------||-14----------14-14-14----------14-14-14----------14-14------||-0-----------0--0--0-----------0--0--0-----------0--0-------||------------------------------------------------------------||------------------------------------------------------------|
|-------------------||----17----14-------||-14----14----14----||-0-----0-----0-----||-------------------||-------------------|
|-------------------------------------------------------15---||-14h15-15-14-------14h15-15-14-------14h15-15-14-14-14------||-14----------14-14-14----------14-14-14----------14-14------||-0-----------0--0--0-----------0--0--0-----------0--0-------||------------------------------------------------------------||------------------------------------------------------------|
|----------------------||----17----14----14h15-||-14----14----14-14----||-0-----0-----0--0-----||----------------------||----------------------|
|-------------------------------------------------------15---||-14h15-15-14-------14h15-15-14-------14h15-15-14-14-14------||-14----------14-14-14----------14-14-14----------14-14------||-0-----------0--0--0-----------0--0--0-----------0--0-------||------------------------------------------------------------||------------------------------------------------------------|
|---------------------------0||----17----14----15-15-15---0||-14----14----14-0--0 0----0||-0-----0-----0--0--0--0----2||---------------------------2||---------------------------0|
Chords: Em1 022000 Em2 779987 F1 133211 F2 881010108 Eb x6888x D/F# 020230 G 355433 A 577655 Bm 799777 G2 10 10 12 12 12 10 F# 9 9 11 11 11 9 verse: Em1 Em1 There's the moon asking to stay F1 Em1 Eb Long enough for the clouds to fly me away F2 Em2 Eb Em2 Em Well it's my time coming, i'm not afraid, AFRAID to die Ref: Em1 D/F# G A Bm A Em1 My fading voice sings of love, Em1 D/F# G A Bm But she cries to the clicking of time A Em1 Of time Bridge: F2 Wait in the fire... Em2 Eb Wait in the fire... F2 Wait in the fire... Em2 Eb Em2 Wait in the fire... Then: Play the intro again! Em1 Em1 And she weeps on my arm F1 Em1 Eb Walking to the bright lights in sorrow F2 Em2 Eb Oh drink a bit of wine we both might go tomorrow Em2 Em1 Oh my love Em1 D/F# G A Bm And the rain is falling and i believe A Em1 My time has come Em1 D/F# G A It reminds me of the pain Bm I might leave A Em1 Leave behind F2 Wait in the fire... Em2 Eb Em1 Wait in the fire... Eb F2 G2 F# (this is the part where he goes 'ooh') F Em1 Em1 D/F# G A Bm Em1 D/F# G A Bm Em1 D/F# G A Bm (sings 'I might leave' again) Then play the intro again! Em2 And I feel them drown my name F2 Em2 Eb So easy to know and forget with this kiss F2 Em2 Eb I'm not afraid to go but it goes so slow
Tap to rate this tab
 
# A B C D E F G H I J K L M N O P Q R S T U V W X Y Z