Jeff Martin - Return Me To The Earth tab

-----------------------------------------------------------------
RETURN ME TO THE EARTH - Jeff Martin
-----------------------------------------------------------------

Tuning: Standard (EADGBe)


Intro

|--<12>-------<7>--------|-<5>-------||-------<12>-------<7>---|-----------||------------------------|-----------||------------------------|-----------||------------------------|-----------||------------------------|-----------|
Main
-----0-----0----------|-----------|----------------------|-----------|--7-----7-----7/-9----|--9--------|----------------------|-----------|----------------------|-----------|----------------------|-----------|
-----------------------------|----------0--------|-----------------------------|-------------------|--9p11---7p9---6-----7--6----|-------------------|-----------------------------|-------------------|-----------------------------|-------------------|-----------------------------|-------------------|
---------0-------------0-----|-----------0-----------------0--|-----------------------2-----|--------------------------------|-----------------------2-----|--------------------------------|--6-6h7p6--4h6p2-------2-----|-2-2-4-4/6--4--2----------------|-----------------0--0--0-----|-------------------2/4----------|-----------------------------|-----------------------2/4-2----|
-----0-----0----------|-----------|----------------------|-----------|--7-----7-----7/-9----|--9--------|----------------------|-----------|----------------------|-----------|----------------------|-----------|
-----------------------------|----------0--------|-----------------------------|-------------------|--9p11---7p9---6-----7--6----|-------------------|-----------------------------|-------------------|-----------------------------|-------------------|-----------------------------|-------------------|
---------0-------------0-----|-----------0-----------------0-------|-----------------------2-----|-------------------------------0-----|-----------------------2-----|---------------------------------1---|--6-6h7p6--4h6p2-------2-----|-2-2-4-4/6--4--2-------------------2-|-----------------0--0--0-----|-------------------2/4---------------|-----------------------------|-----------------------2/4-2---------|
-------0---------0-----------|-------0-------------------0-----|-----------------2-----------|---------------5-5-2-2-----------|-----------------2-----------|------------------------2/4-1-1--|-2-4/6---4-------2-----------|-2-4/6---4--2--------------------|-----------0---0-0-----------|---------------------------------|-----------------------------|---------------------------------|
------0---0-----------0------|-----------0-----------------0--|----------------------2------|--------------------------------|------------------2---2------|--------------------------------|-4/6----6---6--4--2-2-2------|-2-2-4-4/6--4--2----------------|------------------0-0-0------|-------------------2/4----------|-----------------------------|-----------------------2/4-2----|
ending
-----------0--------------------|--<12>-------<7>--------|-<5>-------|--------------------------------|-------<12>-------<7>---|-----------|--------------------------------|------------------------|-----------|-2-2-4-4/6--4--2-0--------------|------------------------|-----------|-------------------2/4----------|------------------------|-----------|-----------------------2/4-2----|------------------------|-----------|
| / slide up | \ slide down | h hammer-on | p pull-off | ~ vibrato |< > harmonic | x Mute note
Tap to rate this tab
 
# A B C D E F G H I J K L M N O P Q R S T U V W X Y Z