Jefferson Blind Lemon - He Arose From The Dead tab

These verse lines differ throughout the song. I just tabbed all the main parts. I wasn't 
sure on the bass lines so I decided not to include them, but my guess is that they're 
frets 4 and 2.


|-4---------4--------4-6-4------------||---6---------6------------7-6-4------||-------------------------------------||-------------------------------------||-------------------------------------||-------------------------------------|
|-2---------2--------2-4-2-1-2-4------||---4---------4-----------------------||-------------------------------------||-------------------------------------||-------------------------------------||-------------------------------------|
|-4---------4--------4-6-4------------||---6---------6------------7-6-4------||-------------------------------------||-------------------------------------||-------------------------------------||-------------------------------------|
|-2-4-4/6-4-----------------------||---------------6--6--4--2--------||---------------------------------||---------------------------------||---------------------------------||---------------------------------|
|-4--4--4--4---4-6-4------------||---6--6--6--6-------7-6-4------||-------------------------------||-------------------------------||-------------------------------||-------------------------------|
|-2--2--2--2---2-4-2-1-2-4------||---4--4--4--4------------------||-------------------------------||-------------------------------||-------------------------------||-------------------------------|
|-4--4--4--4---4-6-4------------||---6--6--6--6-------7-6-4\-----||-------------------------------||-------------------------------||-------------------------------||-------------------------------|
|-2-4-4/6--6/8-4---4--------------||--------------------6--4--2------||---------------------------------||---------------------------------||---------------------------------||---------------------------------|
(End)|------||------||------||------||-3----||-3----|
Tap to rate this tab
 
# A B C D E F G H I J K L M N O P Q R S T U V W X Y Z