Jerry Cantrell – Keep The Light On tab ver. 2

Keep The Light On

Jerry Cantrell

Album: Boggy Depot(1998)

Tabbed by:Brownbear93

Tuning: Db Ab Db Gb Bb Eb

Intro: G1|---------------------------------------------------------------------------||---------------------------------------------------------------------------||---------------------------------------------------------------------------||-------7---------------7---------------7---------------7---------------7---||---5b--5-0---0-5-0-5b--5-0---0-5-0-5b--5-0---0-5-0-5b--5-0---0-5-0-5b--5-0-||---5b----0---0-5-0-5b----0---0-5-0-5b----0---0-5-0-5b----0---0-5-0-5b----0-|
|
|G2 *slight pinch harmonics |--------------------------------------------------------------------------||--------------------------------------------------------------------------||--------------7----5br----------------------------------------------------||------3----/7---7-------7-5-3-5-----------3---5-x-3b--3-0-------------3---||---/3----------------------------5~----/3-----------------3-5~-----/3-----||--------------------------------------------------------------------------|
G1|-----------------------------------------------------------------------||-----------------------------------------------------------------------||-----------------------------------------------------------------------||------------7---------------7---------------7---------------7----------||--0-5-0-5b--5-0---0-5-0-5b--5-0---0-5-0-5b--5-0---0-5-0-5b--5-0--------||--0-5-0-5b----0---0-5-0-5b----0---0-5-0-5b----0---0-5-0-5b----0--------|
|
|G2|------------------------------------------------------------------||------------------------------------------------------------------||------5-7-5-------------------------------------------------------||--/7---------7-5-3-5------------3----5-x-3b-0---0-----------------||----------------------5~-----/3-------------------3---------------||----------------------------------------------------5-3~----------|
Verse:G1|-------------------------------------------------------------------||-------------------------------------------------------------------||-------------------------------------------------------------------||-------------7---------------7---------------7---------------7-----||---0-5-0-5b--5-0---0-5-0-5b--5-0---0-5-0-5b--5-0---0-5-0-5b--5-0---||---0-5-0-5b----0---0-5-0-5b----0---0-5-0-5b----0---0-5-0-5b----0---|
|-----------------------------------------------------------||-----------------------------------------------------------||-----------------------------------------------------------||-------------7---------------7---------------7-------------||---0-5-0-5b--5-0---0-5-0-5b--5-0---0-5-0-5b--5-0---0-5-0---||---0-5-0-5b----0---0-5-0-5b----0---0-5-0-5b----0---0-5-0---|
G2 |----------------------||----------------------||----------------------||-----------5h7-5~-----||--3--5--8-------------||----------------------|
Pre Chorus:G1|---------------------------------------------------------------------------------||---------------------------------------------------------------------------------||---------------------------------------------------------------------------------|x2|--3-3---5---3-3------7---------------7---------------7---------------7-----------||--3-3---5---3-3--5b--5-0---0-5-0-5b--5-0---0-5-0-5b--5-0---0-5-0-5b--5-0---0-5-0-||--3-3---5---3-3--5b----0---0-5-0-5b----0---0-5-0-5b----0---0-5-0-5b----0---0-5-0-|
G2|--------------------------------------------------------------------||--------------------------------------------------------------------||-------------7---5~-------------------------------------------------||-----3----/7---7----7-5-3-5--------------3---5-x-3b-0---0-----------||--/3------------------------3~--------/3------------------3---------||------------------------------------------------------------5-3~----|
2nd Verse:G1|---------------------------------------------------------------------------||---------------------------------------------------------------------------||---------------------------------------------------------------------------||-------7---------------7---------------7---------------7---------------7---||---5b--5-0---0-5-0-5b--5-0---0-5-0-5b--5-0---0-5-0-5b--5-0---0-5-0-5b--5-0-||---5b----0---0-5-0-5b----0---0-5-0-5b----0---0-5-0-5b----0---0-5-0-5b----0-|
|-------------------------------------------------------------------||-------------------------------------------------------------------||-------------------------------------------------------------------|x2|-------------7---------------7---------------7---------------7-----||---0-5-0-5b--5-0---0-5-0-5b--5-0---0-5-0-5b--5-0---0-5-0-5b--5-0---||---0-5-0-5b----0---0-5-0-5b----0---0-5-0-5b----0---0-5-0-5b----0---|
|-----------------------------------------------------------||-----------------------------------------------------------||-----------------------------------------------------------||-------------7---------------7---------------7-------------||---0-5-0-5b--5-0---0-5-0-5b--5-0---0-5-0-5b--5-0---0-5-0---||---0-5-0-5b----0---0-5-0-5b----0---0-5-0-5b----0---0-5-0---|
G2|-------------------------------------------------------------||-------------------------------------------------------------||--------------7----5br---------------------------------------||------3----/7---7-------7-5-3-5-----------3---5-x-3b--3-0----||---/3----------------------------5~----/3-----------------3~-||-------------------------------------------------------------|
|------------------------------------------------------------------||------------------------------------------------------------------||------5-7-5-------------------------------------------------------||--/7---------7-5-3-5------------3----5-x-3b-0---0---------5h7-5~--||----------------------5~-----/3-------------------3---3h5---------||----------------------------------------------------5-------------|
2nd Pre Chorus:G1|----------------------------------------------------------------||----------------------------------------------------------------||----------------------------------------------------------------||--3-3---5---3-3------7---------------7------------3-3---5---3-3-||--3-3---5---3-3--5b--5-0---0-5-0-5b--5-0---0-5-0--3-3---5---3-3-||--3-3---5---3-3--5b----0---0-5-0-5b----0---0-5-0--3-3---5---3-3-|
Chorus:G1|--------------------------------------------------------------------||--------------------------------------------------------------------|x2|--------------------------------------------------------------------||--3----/5----3----/5----3----/5----3----/5----3----/5----3----/5----||--3----/5----3----/5----3----/5----3----/5----3----/5----3----/5----||--3----/5----3----/5----3----/5----3----/5----3----/5----3----/5----|
G2|--------------------------------||--8--8--8--8--8--8--8--8--8--8--|x8|--0--0--0--0--0--0--0--0--0--0--||--------------------------------||--------------------------------||--------------------------------|
|--------------------------------||-8--8--8--8--8--8--8--8--8--12--||-0--0--0--0--0--0--0--0--0---0--||--------------------------------||--------------------------------||--------------------------------|
|-----------------------------------------------8--7-------------||--8--8--8--8--8--8--8--8--8--8--8--8--8--8--8--8--8--8--8--8--8-||--0--0--0--0--0--0--0--0--0--0--0--0--0--0--0--0--0--0--0--0--0-||----------------------------------------------------------------||----------------------------------------------------------------||----------------------------------------------------------------|
G3|----------------------------------------------------------||------12-10-12-10~--8-8----12-10-12-10~-8--8-6-8----------||-------------------------------------------------7~-------||----------------------------------------------------------||----------------------------------------------------------||----------------------------------------------------------|
Post Chorus:G1|---------------------------------------------------------------------------||---------------------------------------------------------------------------||---------------------------------------------------------------------------||-------7---------------7---------------7---------------7---------------7---||---5b--5-0---0-5-0-5b--5-0---0-5-0-5b--5-0---0-5-0-5b--5-0---0-5-0-5b--5-0-||---5b----0---0-5-0-5b----0---0-5-0-5b----0---0-5-0-5b----0---0-5-0-5b----0-|
|-------------------------------------------------------------------||-------------------------------------------------------------------||-------------------------------------------------------------------|x2|-------------7---------------7---------------7---------------7-----||---0-5-0-5b--5-0---0-5-0-5b--5-0---0-5-0-5b--5-0---0-5-0-5b--5-0---||---0-5-0-5b----0---0-5-0-5b----0---0-5-0-5b----0---0-5-0-5b----0---|
G2|------------------------------------------------------------------||------------------------------------------------------------------||--------------7---5br---------------------------------------------||------3----/7---7-----7-5-3-5----------3---/7-5--3b-5-3-5b--------||---/3-------------------------5~----/3---------------------3-5~---||------------------------------------------------------------------|
|------------------------------------------------------------------||------------------------------------------------------------------||--------------7---5-----------------------------7-----------------||------3----/7---7---7-5-3-3-5----------3--x--/7---7-5-3-5-3-------||---/3-------------------------5~----/3----x-----------------5-3-5~||------------------------------------------------------------------|
3rd Verse:G1|-------------------------------------------------------------------||-------------------------------------------------------------------||-------------------------------------------------------------------||-------------7---------------7---------------7---------------7-----||---0-5-0-5b--5-0---0-5-0-5b--5-0---0-5-0-5b--5-0---0-5-0-5b--5-0---||---0-5-0-5b----0---0-5-0-5b----0---0-5-0-5b----0---0-5-0-5b----0---|
|-----------------------------------------------------------||-----------------------------------------------------------||-----------------------------------------------------------||-------------7---------------7---------------7-------------||---0-5-0-5b--5-0---0-5-0-5b--5-0---0-5-0-5b--5-0---0-5-0---||---0-5-0-5b----0---0-5-0-5b----0---0-5-0-5b----0---0-5-0---|
G2 |----------------------||----------------------||----------------------||-----------5h7-5~-----||--3--5--8-------------||----------------------|
3rd Pre Chorus:G1|----------------------------------------------------------------||----------------------------------------------------------------||----------------------------------------------------------------||--3-3---5---3-3------7---------------7------------3-3---5---3-3-||--3-3---5---3-3--5b--5-0---0-5-0-5b--5-0---0-5-0--3-3---5---3-3-||--3-3---5---3-3--5b----0---0-5-0-5b----0---0-5-0--3-3---5---3-3-|
G2 |----------------------||----------------------||----------------------||-----------5h7-5~-----||--3--5--8-------------||----------------------|
2nd Chorus:G1|--------------------------------------------------------------------||--------------------------------------------------------------------|x4|--------------------------------------------------------------------||--3----/5----3----/5----3----/5----3----/5----3----/5----3----/5----||--3----/5----3----/5----3----/5----3----/5----3----/5----3----/5----||--3----/5----3----/5----3----/5----3----/5----3----/5----3----/5----|
G2|--------------------------------||--8--8--8--8--8--8--8--8--8--8--|x10|--0--0--0--0--0--0--0--0--0--0--||--------------------------------||--------------------------------||--------------------------------|
|--------------------------------8--8--8--7--7--7--5--5----------||--8--8--8--8--8--8--8--8--8--8--8--8--8--8--8--8--8--8--8--8--8-|x6|--0--0--0--0--0--0--0--0--0--0--0--0--0--0--0--0--0--0--0--0--0-||----------------------------------------------------------------||----------------------------------------------------------------||----------------------------------------------------------------|
G3|-----------------------------------------||--12-12-12-10---12-10~-8--8-6-8----------||---------------------------------7~------||-----------------------------------------||-----------------------------------------||-----------------------------------------|
|-------------------------------------||------12-10-12-10~-8--8-6-8----------||-----------------------------7~------|x6|-------------------------------------||-------------------------------------||-------------------------------------|
|-----------------------------------||---12-12-10-12-10\8-10-8-6-8-10-8--||-----------------------------------||-----------------------------------||-----------------------------------||-----------------------------------|
Outro:G1|------------------------------------------------------------||------------------------------------------------------------||------------------------------------------------------------|x6|-------------/7-5-------------------------------------------||---5br--0-3--/5-3--5-3-0--5br--0-3--0-3-0--5br--0-3--0-3-0--||---5br--0-3--------5-3-0--5br--0-3--0-3-0--5br--0-3--0-3-0--|
|----------------------||----------------------||----------------------||-------------/7-5-\---||---5br--0-3--/5-3-\---||---5br--0-3-----------|
G2|---------------------------------------------------------------------------||---------------------------------------------------------------------------|x5|---7-10-10-12br-7-10~--7-10-10-12br-7-10~--7-10-10-12br-7-10--/14~-10~-----||---------------------------------------------------------------------------||---------------------------------------------------------------------------||---------------------------------------------------------------------------|
************************************ | / slide up | \ slide down | h hammer-on | p pull-off | ~ vibrato | + harmonic | x Mute note | b Bend | pb Pre-bend | br Bend release | pbr Pre-bend release | brb Bend release bend ************************************
Please rate this tab:
x1.0