Jesus Culture - Your Love Never Fails tab version 2

Jesus Culture - Your Love Never Fails

Tabbed by ezs91

This tab is based on the live concert version on YouTube and a cover by TheRoctopus.

Please let me know how I can improve this, as it is my first tab.
Email me at blackout.bg@gmail.com! 

Enjoy!

Capo 3

EADGBe

INTRO

|--------------------------------------------||--------0--3-----3------------3--3/5--------||--0-----------2-----0----2/4----------2--0--||--------------------------------------------||--------------------------------------------||--------------------------------------------|
INTRO 2
|----------------------------||----------------------------||-----0----------------0-----||--------2------5---------4--||--3--------/7-----/5--------||----------------------------|
CHORUS
|------3----------------0---------------||----3---3-----3------3--------1--------||--0---------0---0--2--------2---2------||--2-------------------------------2----||--3-----------------------0---------0--||----------3----------------------------|
|---------------------0---------------||--------1-----3----3--------1-0------||------0-----0----2--------2-----2-0--||----2--------------------------------||--3---------------------0------------||----------3--------------------------|
|---------------------------------||--------1-----3------3------1----||------0-----0------2------2---0--||----2------------0---------------||--3---------------------0--------||----------3----------------------|
|----------------------0-------3--||--------1-----3-----3-------1----||------0-----0-----2--------2-----||----2-----------0---------2------||--3----------------------0-------||----------3----------------------|
BRIDGE
|--------------------||-----------8-----7--||--5---5/9-----7-----||--------------------||--------------------||--------------------|
OUTRO
|--7---7---8---10---7---7---8---10---10----------------||----8---8---8----8---8---8---8----8----8-7-8-8-7------||-------------------------------------------------9-7--||------------------------------------------------------||------------------------------------------------------||------------------------------------------------------|
|--7---7---8---10---7---7---8---10---10-------10-------10-------10--------------||----8---8---8----8---8---8---8----8----8-7-8----8-7-8----8-7-8----8-7-8-8~~~~--||-------------------------------------------------------------------------------||-------------------------------------------------------------------------------||-------------------------------------------------------------------------------||-------------------------------------------------------------------------------|
Tap to rate this tab
 
# A B C D E F G H I J K L M N O P Q R S T U V W X Y Z