Jimi Hendrix - You Got Me Floatin tab

Jimi Hendrix  - you got me floatin'

not mine..made by emopunk99

Intro

eb |-----5--7-7p5-x-x-x---------------|----5--7-7p5-x-x-x----------| Bb |-----5--7-7p5-x-x-x---5------x-x--|----5--7-7p5-x-x-x----5-----| Gb |-----5--7-7p5-x-x-x---5------x-x--|----5--7-7p5-x-x-x----5-----| Db |---7----------x-x-x---5---7--x-x--|--7----------x-x-x----5-----| Ab |--------------------7--------x-x--|--------------------7-------| Eb |------------------------5----x-x--|------------------------5-3-|
|-----5--7-7p5-x-x-x---------------|----5--7-7p5-x-x-x----------| |-----5--7-7p5-x-x-x---5------x-x--|----5--7-7p5-x-x-x----5-----| |-----5--7-7p5-x-x-x---5------x-x--|----5--7-7p5-x-x-x----5-----| |---7----------x-x-x---5---7--x-x--|--7----------x-x-x----5-----| |--------------------7--------x-x--|--------------------7-------| |------------------------5----x-x--|------------------------5-3-|
|-----5--7-7p5-x-x-x---------------|----5--7-7p5-x-x-x----------------| |-----5--7-7p5-x-x-x---5------x-x--|----5--7-7p5-x-x-x----5-----------| |-----5--7-7p5-x-x-x---5------x-x--|----5--7-7p5-x-x-x----5-----------| |---7----------x-x-x---5---7--x-x--|--7----------x-x-x----5---7-------| |--------------------7--------x-x--|--------------------7-------------| |------------------------5----x-x--|------------------------5----12s3-|
|------------------------------------------------------------| |------------------------------------------------------------| |------------------------------------------------------------| |----0-0-------------------------0-0-------------------------| |--3-------------3-0-0---------3-------------3-0-0-----------| |--------2-3-4-5-------2-3-4-5-------2-3-4-5--------2-3-4-5--|
|------------------------------------------------------------| |------------------------------------------------------------| |------------------------------------------------------------| |----0-0-------------------------0-0-------------------------| |--3-------------3-0-0---------3-------------3-0-0-----------| |--------2-3-4-5-------2-3-4-5-------2-3-4-5--------2-3-4-5--|
|-----5--7-7p5-x-x-x---------------|----5--7-7p5-x-x-x----------| |-----5--7-7p5-x-x-x---5------x-x--|----5--7-7p5-x-x-x----5-----| |-----5--7-7p5-x-x-x---5------x-x--|----5--7-7p5-x-x-x----5-----| |---7----------x-x-x---5---7--x-x--|--7----------x-x-x----5-----| |--------------------7--------x-x--|--------------------7-------| |------------------------5----x-x--|------------------------5-3-|
|-----5--7-7p5-x-x-x---------------|----5--7-7p5-x-x-x----------| |-----5--7-7p5-x-x-x---5------x-x--|----5--7-7p5-x-x-x----5-----| |-----5--7-7p5-x-x-x---5------x-x--|----5--7-7p5-x-x-x----5---5-| |---7----------x-x-x---5---7--x-x--|--7----------x-x-x----5---5-| |--------------------7--------x-x--|--------------------7-------| |------------------------5----x-x--|------------------------5---|
|------------------------------------------------------------| |------------------------------------------------------------| |------------------------------------------------------------| |----0-0-------------------------0-0-------------------------| |--3-------------3-0-0---------3-------------3-0-0-----------| |--------2-3-4-5-------2-3-4-5-------2-3-4-5--------2-3-4-5--|
|------------------------------------------------------------| |------------------------------------------------------------| |------------------------------------------------------------| |----0-0-------------------------0-0-------------------------| |--3-------------3-0-0---------3-------------3-0-0-----------| |--------2-3-4-5-------2-3-4-5-------2-3-4-5--------2-3-4-5--|
|------------------------| |------------------------| |------------------------| |------------------------| |------------------------| |-5-5-5-5-5-5-5-5-5-5-5--|
|------------------------------------------------------------| |------------------------------------------------------------| |------------------------------------------------------------| |----0-0-------------------------0-0-------------------------| |--3-------------3-0-0---------3-------------3-0-0-----------| |--------2-3-4-5-------2-3-4-5-------2-3-4-5--------2-3-4-5--|
|------------------------------------------------------------| |------------------------------------------------------------| |------------------------------------------------------------| |----0-0-------------------------0-0-------------------------| |--3-------------3-0-0---------3-------------3-0-0-----------| |--------2-3-4-5-------2-3-4-5-------2-3-4-5--------2-3-4-5--|
|-----5--7-7p5-x-x-x---------------|----5--7-7p5-x-x-x----------| |-----5--7-7p5-x-x-x---5------x-x--|----5--7-7p5-x-x-x----5-----| |-----5--7-7p5-x-x-x---5------x-x--|----5--7-7p5-x-x-x----5-----| |---7----------x-x-x---5---7--x-x--|--7----------x-x-x----5-----| |--------------------7--------x-x--|--------------------7-------| |------------------------5----x-x--|------------------------5-3-|
|-----5--7-7p5-x-x-x---------------|----5--7-7p5-x-x-x----------| |-----5--7-7p5-x-x-x---5------x-x--|----5--7-7p5-x-x-x----5-----| |-----5--7-7p5-x-x-x---5------x-x--|----5--7-7p5-x-x-x----5---5-| |---7----------x-x-x---5---7--x-x--|--7----------x-x-x----5---5-| |--------------------7--------x-x--|--------------------7-------| |------------------------5----x-x--|------------------------5---|
|---------------------- |-12-12-14-14-12---12-12-14-14-12-12----| |-12-12-12-12-12-12---- |-12-12-14-14-12---12-12-14-14-12-12----| |-12-12-12-12-12-12---- |-12-12-14-14-12---12-12-14-14-12-12----| |-12-12-12-12-12-12---- |---------------------------------------| |---------------------- |---------------------------------------| |---------------------- |---------------------------------------|
|-12-12-14-14-12---12-12-14-14-12-12-----| |-12-12-14-14-12---12-12-14-14-12-12-----| |-12-12-14-14-12---12-12-14-14-12-12-----| |----------------------------------------| |----------------------------------------| |----------------------------------------|
Jimi lives forever....peace and rock'n'roll!
Tap to rate this tab
 
# A B C D E F G H I J K L M N O P Q R S T U V W X Y Z