Jimi Hendrix - Foxy Lady tab

                                    FOXY LADY
                   As recorded by The Jimi Hendrix Experience
                   (From the 1967 Album ARE YOU EXPERIENCED ?)

Transcribed by www.mikesguitarsite.co.uk

 Intro
  Q=96
 4/4
  Gtr I
   <
   ~~~~~~~~~~~~~~~~
|-----------|----------------|-----5-x-----5-5-|-----x-------------||-----------|----------------|-----5-x-----5-5-|-----x-------4-4-4-||-11--------|-(11)------11\--|-----------------|-------------4-4-4-||-----------|----------------|---------4-4-----|-------4-----4-4-4-||-----------|----------------|-----------------|-------------2-2-2-||-----------|----------------|-2-2-------------|-2-2-----5-7-------|
|------5--5------5-5-|--------5-------------|||------5--5------5-5-|--------5-5-------4---|||--------------------|--------x-4-------4-4-|||-----------4-4------|------2h4---------4-4-|||--------------------|------------4s7-3---4-|||-2-2----------------|-2-2------------------||
|
| Gtr II| ~~ ~~ ~~~|--------------------|----------------------|||-----14--------14---|-----14---------------|||-----14-14-----14---|-----14---------------|||--------------------|----------------------|||--------------------|----------------------|||--------------------|----------------------||
Verse 1|------5------5---|------5----5-------------||------5------5---|------5----5-----4b5r(4)-||---------------4-|------x----x-----4b5r(4)-||---------4-4---4-|------4----4-----4b5r(4)-||-----------------|-------------------------||-2-2-------------|-2-2---------5-7---------|
|
| ~~|-----------------|-------------------------||-----14----------|-------------------------||-----14----------|-----14-14---------------||-----------------|-------------------------||-----------------|-------------------------||-----------------|-------------------------|
|------5--5------5---|------5--x------------------------||------5--5------5---|------5--x------------------------||--------------------|----------------------------------||-----------4-4----2-|----------------------------------||--------------------|-4----------0-----2--3----------4-||-2-2----------------|---2------------------------------|
|
| ~~ ~~|--------------------|----------------------------------||-----14-14----------|-----14\--------------------------||-----14-14-----14---|-----14\------------16p14h16p14---||--------------------|-----------------16---------------||--------------------|-----------16p14------------------||--------------------|----------------------------------|
|------5--5------5-----5-|------5-x-------------||------5--5------5-----5-|------5-x-----4b5r(4)-||------------------------|------x-------4b5r(4)-||-----------4-4----------|------4-------4b5r(4)-||------------------------|----------0-2---------||-2-2--------------------|-2-2------------------|
|
|------------------------|----------------------||-----14-14--------------|----------------------||-----14-14-----14-------|-----14---------------||---------------14h16p14-|----------------------||------------------------|----------------------||------------------------|----------------------|
Chorus|----------5-5------5---------|------5-x-x---------||--------------------||----------5-5------5---------|------5-x-x---------||-----2-x-x-2-2-2----||-------------------x---------|------x-x-x---------||-----3-x-x-3-3-3----||--------------4-4--4-----2-2-|------4-x-x---------||---4-4-x-x-4-4-4----||-----------------------------|-4----------0-2-3-4-||---x-x-----x-x-x----||-2-2-------------------------|---2----------------||-2-2-2-----2-2-2-2--|
|
| ~~|-----------------------------|--------------------||--------------------||-----------------------------|--------------------||--------------------||---------14------------------|-----14-------------||--------------------||-------x----------16tr14-----|--------------------||--------------------||-----x-----------------------|--------------------||--------------------||-----------------------------|--------------------||--------------------|
|-------------------------|-------------------|-------------------||-------------------------|-----2-x-x-2---2---|-------------------||-1---1-x-x---------------|-----3-x-x-3---3---|-1---1-------------||-2---2-x-x-----4-----2h4-|-----4-x-x-4-4-4---|-2---2-------------||-2---2-x-x-4h6---2h4-----|-----x-----x-x-x---|-2---2-----2-2-2-3-||-0-0-0-------------------|-2-2-2-----2-2-2-2-|-0-0-0-0-0---------|
|-----5-----5---5---|-----------------------|---------||-----5-----5---5---|-----------------------|---------||-----x-----x---x---|-1---1-x-x-------------|---------||-----4-----4---4---|-2---2-x-x-----4-6p4---|-4-------||-4-----------------|-2---2-x-x-4s6-------6-|-x-------||---2---2-2---2---2-|-0-0-0-----------------|-2-------|
~~ ~~~~~~~|-------------------------------------------||----------------------------14-------------||--16b18-(16)-14--16b18-(16)----14-(14)-----||---------------------------------------16\-||-------------------------------------------||-------------------------------------------|
|
| Gtr II|-------------------------------------------||-------------------------------------------||----------x--------------------------------||--------------x----------------------------||-------------------------x-----------------||-----------------------------x------x---x--|
|------5-5------5-----5-|-----5-x--------------||------5-5------5-----5-|-----5-x--------------||-----------------------|-----x----------------||----------4-4----------|-----4----------------||-----------------------|---------1-2--3-----4-||-2-2-------------------|-2-2------------------|
|
| ~~|-----------------------|----------------------||-----------------------|----------------------||-----14----------------|----------------------||-----14-------16tr14---|-------------16tr14---||-----------------------|----------------------||-----------------------|----------------------|
|------5--5------5-----5-||------5--5------5-----5-||------------------------||-----------4-4----------||------------------------||-2-2--------------------|
|
|------------------------||------------------------||-----14-14--------------||-----14-14-----16tr14---||------------------------||------------------------|
Verse 2|-----5-5-x----------------------||-----5-5-----5---5--||-----5-5-x-----------------4----||-----5-5-----5---5--||------------------------4--4----||--------------------||------------------------4--4----||---------4-4--------||------------0-----2-----2-------||--------------------||-2-2----------------------------||-2-2----------------|
|
|--------------------------------||--------------------||--------------------------------||--------------------||--------------------------------||---------x-x-x-x-x--||-----------------14----16-13-13-||--------------------||-----------14h16----16----------||--------------------||--------------------------------||--------------------|
|-----5--------------------|------5-5-x------5-----||-----5----------4b5r(4)---|------5-5-x------5-5-5-||----------------4b5r(4)---|-----------------------||---------4------4b5r(4)---|------------4-4--------||--------------------------|-----------------------||-2-2-------5-7------------|-2-2-------------------|
|
|--------------------------|-----------------------||--------------------------|-----------------------||-x-x-x-x-x-x-x-14----x--x-|-x-x-14-----x-x-14---x-||--------------------------|-----14---------14-----||--------------------------|-----------------------||--------------------------|-----------------------|
|----------------------------------||------5-----5-----------4-----4-4-||------3-----3-----------4-----4-4-||------4-----4--4--------4-----4-4-||------------------0--2--2-----2-2-||-2-2------------------------------|
|
|----------------------------------||----------------------------------||-x-x-------------------16tr14-----||-----16tr14-----------------------||--------------14-15-16------------||----------------------------------|
|------5-5------5-x-|------5-------------------||------5-5------5-x-|------5---------4-----4-4-||-------------------|---------3------4-----4-4-||----------4-4------|----------------4-----4-4-||-------------------|-----------0-2--2---------||-2-2---------------|-2-2----------------------|
|
| ~~ ~~|-------------------|--------------------------||-----14-------14---|-----14\------------------||-----14-------14---|-----14\-------16tr14-----||-------------------|--------------------------||-------------------|--------------------------||-------------------|--------------------------|
|------5-------5--------5--5--5-||------5-------5--------5--5--5-||-----------------------x--x--x-||-----------------4--4--4--4--4-||-------------------------------||-2-2---------------------------|
|
|-------------------------------||-------------------------------||-------------------------14-14-||-----14h16p14------16-14-------||----------------16-------------||-------------------------------|
Chorus|------5---------------------||----------------------||------5--x-x----------------||-----7-7-7---7-7-7-7--||------x--x-x----------------||-----6-6-6---6-6-6-6--||------4--x-x-------2--(2)-0-||-4-4-4-4-4-4-4-4-4-4--||-------------2s4------------||----------------------||--2-2-----------------------||----------------------|
|
| ~~~~~~~~~~~~~|----------------------------||----------------------||----------------------------||----------------------||-18-----11-------(11)-------||----------------------||----------------------------||----------------------||----------------------------||----------------------||----------------------------||----------------------|
|----------------------|----------------------|--------------------------||-5---5-5---5----------|----7-7-7-----7-------|-5---5-5---5-5------------||-4---4-4---4----------|----6-6-6-4h6-6-4h6-6-|-4---4-4---4-4------------||-4h6-6-4h6-6----------|-4--4-4-4-4---4-4---4-|-4h6-6-4h6-6-6-----2---2--||-------------2-2-2-6\-|----------------------|---------------2-4---4----||----------------------|----------------------|--------------------------|
|-------------------|-----------------------|---------||-----2-2-2-2---2---|-----------------------|-2-------||-----x-x-x-x---x---|-1---1-1-1-------4-----|-3-------||-----4-4-4-4---4---|-2---2-2-2-----4-6p4---|-4-------||-----x-x-x-x---x---|-2---2-2-2-4s6-------6-|-x-------||-2-2-2-2-2-2-2-2-2-|-0-0-0-0-0-------------|-2-------|
Guitar Solo|-------------------------------||---------------5----------5--x-||-------------------------------||---------------5----------5--x-||-------------------------------||--------------------------x----||-------------------------------||--------------------4--4--4----||-------------------------------||-------------------------------||-------------------------------||-2----------2------------------|
|
| Gtr II| ~~~~~~~ ~~~~~~~|-------------------------------||-------------------------------||-------------------------------||---17b19==(17)r===(17)---------||-18-14-(14)-----18-14-(14)-----||-------------------------14-14-||------------14\------------16\-||-------------------------------||-------------------------------||-------------------------------||-------------------------------||-------------------------------|
|-------5---------------------|----------5------------5---------------5-------||-------5---------------------|----------5------------5---------------5-------||-----------------------------|-----------------------------------------------||-----------------------------|-------------------------4---------4-------2---||------------0---2-----3-4----|-----------------------------------------------||-2--2------------------------|---2---2---------------------------------------|
|
| ~~~~~~~|-----------------------------|-----------------------------------------------||-----------------------------|-----------------------------------------------||-----------------------------|-----------------------------------------------||---15s16--(16)-14p12---------|---------14-16b18-(16)-----16b18-(16)-16-(16)--||---------------------12------|------16---------------------------------------||--------------------------14-|-(14)------------------------------------------|
|--------------5-5--------------------------|---------------5-------5------------------5---||--------------5-5--------------------------|---------------5-------5------------------5-5-||-------------------------------------------|----------------------------------------------||-------------------------------------------|--------------------------4------------4------||--4----------------0-2---------3------4----|----------------------------------------------||-----2-------------------------------------|---------2--2---------------------------------|
|
| ~~|-------------------------------------14----|--------------14----14------14-17b19-(17)-----||----------------------------------14----17-|-17b19-(17)------17------14-------------------||-----------------------16b18-(16)----------|----------------------------------------------||-16-14h16p14-14----------------------------|----------------------------------------------||------------------16-----------------------|----------------------------------------------||-------------------------------------------|----------------------------------------------|
|-------5-----5--5------------------------------------------||-------5-----5--5------------------------------------------||-----------------------------------------------------------||-----------------------------------------------------------||-------------------0------------2------3-------------4-----||--2-2------------------------------------------------------|
|
|-17---14----14-16-14---------------------------------------||---------17----------14------------14-17--------14--14-17--||------------------------16b18-(16)-------16b18-(16)--------||-----------------------------------------------------------||-----------------------------------------------------------||-----------------------------------------------------------|
|-------------------------------------5----------------5-----------5------------------||-------------------------------------5----------------5-----------5------------------||-------------------------------------------------------------------------------------||---------------------------------------------------------4--4------------------------||--------------------------------------------------------------------------------7----||---------2------2--------------------------------------------------------------------|
|
|-----------------------------------------------------------14----14---------------14-||--------14--14-17--------14---------14--14-17b19-(17)---17----17-----------14--14----||-16b18-(16)-------16b18-(16)-16b18-(16)-----------------------------16b18-(16)-------||-------------------------------------------------------------------------------------||-------------------------------------------------------------------------------------||-------------------------------------------------------------------------------------|
Chorus|---------------------------5-------------------------------------||---------2-------2---2---2-----||---------------------------5-------------------------------------||---------2-------2---2---2-0-0-||---------------------------x-------------------------------------||---------3-------3---3---3-1-1-||----------------------2h===4-----2-------------2-----------------||---------4-------4---4---4-2-2-||------------------------------------2h===4--------4p===2---------||---------x-----------------2-2-||--2------------2---------------------------------------------0-0-||---------2----2----2---2---0-0-|
|
|----14------------14---------------------------------------------||-------------------------------||-17-14--------14--14---------------------------------------------||-------------------------------||-------16b18-(16)----16p14------14-------------------------------||-------------------------------||-----------------------------16----16-14------14-----------------||-------------------------------||-------------------------------------------16----16s14------14---||-14b16-(14)-(14)---------------||---------------------------------------------------------17------||-------------------------------|
|---------------------|------------------|-----------------------||---------------------|-----2----2---2---|-----------------------||-----1-1-------------|-----x----3---3-1-|-1-1-----------4-4-----||-2---2-2-----4-----4-|-----4----4---4-2-|-2-2-2---------4-6p4---||-2---2-2-4h6---4s6---|-----x----x---x-2-|-2-2---4s6-4s6-------6-||-0-0-0-0-------------|-2-2-2--2-2-2-2-0-|-0-0-------------------|
|-----------------|-----------------------|----------------|---------||-----2---2---2---|-----------------------|-2--------------|---------||-----3---3---3---|-1---1-----------------|-3--------------|---------||-----4---4---4---|-2---2-2-2-----4-6p4---|-4--------------|---------||-----x-----------|-2---2-2-2-4-6-------6-|-x--------------|---------||-2-2-2-2---2---2-|-0-0-0-0-0-------------|-2--------------|---------|
|
| Gtr II| <|-----------------|-----------------------|----------------|---------||-----------------|-----------------------|----------------|---------||-----------------|-----------------------|-------11-(11)--|-(11)----||-----------------|-----------------------|----------------|---------||-----------------|-----------------------|----------------|---------||-----------------|-----------------------|----------------|---------|
|-------------|----------------------------------|||-------------|----------------------------------|||-------------|----------------------------------|||-------------|----------------------------------|||-------------|----------------------------------|||-------------|----------19b21==(19)-(19)-(19)r\-||
|
|-------------|----------------------------------|||-------------|----------------------------------|||-(11)--------|-(11)-----------------------------|||-------------|----------------------------------|||-------------|----------------------------------|||-------------|----------------------------------||
Out-Chorus|--------5-5-----5-5-|--------5-5---------||--------5-5-----5-5-|--------5-5-----4-4-||--------------------|----------------4-4-||------------4-4-----|----------------4-4-||--------------------|------------0-2-2-2-||---2--2-------------|---2--2-------------|
|
|--------------------|--------------------||--------------------|--------------------||-(11)---------------|-(11)---------------||--------------------|--------------------||--------------------|--------------------||--------------------|--------------------|
|-----5-5-----5-5-|-----5-5-----------||-----5-5-----5-5-|-----5-5-----------||-----------------|---------4---------||---------4-4-----|-------------------||-----------------|-------------------||-2-2-------------|-2-2-------5-7-8-9-|
|
|-----------------|-------------------||-----------------|-------------------||-----------------|-------------------||-----------------|-------------------||-----------------|-------------------||-----------------|-------------------|
|-----5-5---------5-----5-|-----5-------------||-----5-5---------5-----5-|-----5----4-(4)-4--||-----x-------------------|----------4-(4)-4--||-----4---4-4-------------|----------4-(4)-4--||-------------------------|--------0-2-(2)-2--||-2-2---------------------|-2-2---------------|
|
|-------------------------|-------------------||-------------------------|-------------------||-------------------------|-------------------||-------------16-16tr14---|-------------------||-------------------------|-------------------||-------------------------|-------------------|
|------5-5-5------5-5-5-|------5----------------||------5-5-5------5-5-5-|------5----------------||------x-x-x------x-x---|------x-----4-(4)----4-||------4-4-4-4-4--4-4---|------4-----4-(4)----4-||-----------------------|--------4-0-2-(2)----2-||-2-2-------------------|-2-2-------------------|
|
|-----------------------|-----------------------||-----------------------|-----------------------||-----14---------14-----|-----14-------14h16-14-||-----------------------|-----------------------||-----------------------|-----------------------||-----------------------|-----------------------|
|------5-5------5--5--5-|------5-----------------------||------5-5------5--5--5-|------5--5--------------------||------------------x--x-|---------4----4-----(4)--6-6--||----------4-4-----4--4-|---------4----4-----(4)--6-6--||-----------------------|-----------0--2-----(2)--4-4--||-2-2-------------------|-2-2--------------------------|
|
|-----------------------|------------------------------||-----------------------|------------------------------||-----14-------14-14-14-|-----14-14---14h16-(16)p14----||--------------14-14-14-|------------------------------||-----------------------|------------------------------||-----------------------|------------------------------|
|------5-5------5-----5--5-|------5--------------||------5-5------5-----5--5-|------5------4-(4)-4-||---------------------x--x-|-------------4-(4)-4-||----------4-4--------4--4-|-----------x-4-(4)-4-||--------------------------|-----------x-2-(2)-2-||--2-2---------------------|-2-2-------x---------|
|
|--------------------------|---------------------||--------------------------|---------------------||-11-----------14-14-14-14-|-----14-14-----------||--------------------------|---------------------||--------------------------|---------------------||--------------------------|---------------------|
|------5--5------5--5--5-|-----5----------------------||------5--5------5--5--5-|-----5-----4--------(4)--2--||-------------------x--x-|-----x-4---4--------(4)--2--||-----------4-4-----4--4-|-----4-4-x-4--------(4)--2--||------------------------|---------x-2--------(2)-----||-2-2--------------------|-2-2-----x------------------|
|
|------------------------|----------------------------||------------------------|----------------------------||-----14-14-----14-14-14-|-------------16b18-(16)-14--||------------------------|----------------------------||------------------------|----------------------------||------------------------|----------------------------|
|------5-5-5-----5-5-5-|----------------------------*||------5-5-5-----5-5-5-|---------------------4--(4)-*||----------------------|--------------3--3---4--(4)-*||------------4-4-------|--------------4--4-x-4--(4)-*||----------------------|-----------------x-x-2--(2)-*||--2-2-----------------|--2--------2-----2-2--------*|
|
|----------------------|----------------------------*||----------------------|----------------------------*||-11-------------------|----------------------------*||----------------------|-11h14p11------------x\-----*||----------------------|----------14-12------x\-----*||----------------------|----------------14---x\-----*|
*************************************************************************************** * Generated using Power Tab Editor by Brad Larsen - http://powertab.guitarnetwork.org * ***************************************************************************************
Tap to rate this tab
 
# A B C D E F G H I J K L M N O P Q R S T U V W X Y Z