Jimi Hendrix - Electric Ladyland tab

Jimi Hendrix - Electric Ladyland

Electric Ladyland was one hard tab to make cause there are so many different parts
to it and some of the songs just contain synthesisers.
This is my first ever tab so if it is a bit messy dont worry.
Have fun with this!


Track List:
1. ...And The Gods Made Love
2. Have You Ever Been (To Electric Ladyland)
3. Crosstown Traffic
4. Voodoo Chile
5. Little Miss Strange
6. Long Hot Summer Night
7. Come On (Let the Good Times Roll )
8. Gypsy Eyes
9. Burning Of The Midnight Lamp
10.Rainy Day, Dream Away
11.1983... (A Merman I Should Turn To Be)
12.Moon, Turn the Tides ... Gently Gently Away
13.Still Raining, Still Dreaming
14.House Burning Down
15.All Along The Watchtower
16.Voodoo Child (Slight Return)

1. ...And The gods Made Love

Ok Guys for this song u need a synthesiser so you wont need your guitar at all. If
you want you can put some of your own guitar riffs and licks over the top of the
recording track


2. Have You Ever Been (To Electric Ladyland

Gtr I (E A D G B E) - 'Untitled'
Gtr II (E A D G B E) - 'Untitled'

 Intro / Verse
  Moderately Slow Q=72
                           A           N.C.(G#)
 4/4
  Gtr I
  W          Q  Q  Q  Q    E. S S E.    T   T S E  E  E
|----------|-------------|-5----5-----------------------||----------|----x--x--x--|-5--5-5-------9h=12p9---------||----------|----x--x--x--|-6--6-6---------------9-------||----------|----x--x--x--|-7--7-7-----------------------||----------|-------------|-7----7-x----------------9s11-||----------|-------------|-5----5-----------------------|
|
| Gtr II| W W Q E E +Q Q|----------|-------------|------------------------12----||----------|-------------|------------------------------||----------|-------------|------------------------------||----------|-------------|------------------------------||----------|-------------|-----------0-(0)--------------||----------|-------------|------------------------------|
N.C.(G#) N.C.(D) |--3--| |-3--|
S S S S S S S S S Q S S E E S S E. S S S E E S S S|--0-------------------------0--5s7s5-|--------------------------------||-12h14p12----------------------3s5s3-|-------------9h12p9------0h10p0-||----------11----------11-------------|----11-------9------------------||-------------14-11----11h13----------|----12-11-x---------11----------||----------------11-14----------------|--------------------------------||-------------------------------------|-10-----------------------------|
N.C.(B) A/C# E E S S S S E T E T S E E. S S S. S S T E. Q|-------------------------------------|----5-5-----------------------||-0-----------------------------------|----5-5-------9h12p==9--------||---------7h9p7-----------------------|----6-6-------9------------4--||----------------9------7---------7---|-x------x--------------11--6--||-----0------------7s=9-----7h9-------|------------------------------||-------------------------------------|---------------------------4--|
|
| Gtr II| S S S S S S S S E E S T T S S Q E E H|-------------------------------------|-----------12-----------------||--------------------10---------------|------------------------------||------------------9------7-----------|------------------------------||---------7s9-9s11------------7h9p7---|------------------------------||---5-7s9---------------------------9-|------7-----------------------||-7-----------------------------------|------------------------------|
B5/Ab D5/B D5 D/A S S E Q E S S S. T E E. S S E. S S S E E S|--------------5s7s=5--7s5-|---------------------------------||-7s9s7--------3s5s=3--5s3-|----7-7----9h===12p===9----------||-4s6s4-4------4s6s=4------|-7--7-7-x---------------11-------||-6s8s6-6------------------|-7--7-7----------------------9-9-||--------------------------|-5---------------------------7-7-||--------------------------|---------------------------------|
| | \1/ | |---3---|
| H Q +Q H S S S E Q|----------0-------(0)-----|---------------------------------||--------------------------|-----------9h12p===9-------------||--------------------------|---------------------11s===9-----||--------------------------|---------------------------------||--------------------------|---------------------------------||--------------------------|---------------------------------|
N.C.(B) Csus2/A Csus2/G \1/ S S S S S E S S E S S S E H Q. E +Q S E. H|-7h9p7--------------------------------|---------------|------------------||--------------------10----------------|--------3------|-----------3------||-------7----------7----9-----7--------|--------5----5-|-(5)--5-x--5------||-------7----11---------9---7---11s9---|--------5----5-|-(5)--5----5------||----------7---------------------------|---------------|------------------||--------------------------------------|--------5----5-|-(5)--5-----------|
|
| \1/ \1/| S S S S E E E E E E E H. E +H H|--------------------------------------|---------------|------------------||---------------10---------------------|---------------|------------------||--------------------------------------|-5s6---------5-|-(5)-------5------||-----7-9s11----------9---7------------|-------------5-|-(5)-------5------||-7h9-------------------------7s===9---|---------------|------------------||--------------------------------------|---------------|------------------|
N.C.(A) E Q S E. E E S S|--------x--------------x-----x-||--------x-x------------x-------||-----------------7---7---------||-----------------7---7---------||-------------------------------||-5-----------------------------|
|
| Q E. S S S S S E E|-------------------------------||-------------------------------||-----5-------5h7p5-----5b7.5---||----------7--5h7p5---5---------||---------------------5---------||-------------------------------|
C5/A G5/AD5 D5/A N.C.(B) Q Q E E E E E E E E E S S S E S|-----------------------------|---------------------||-----------------------------|---------------------||------5----------7-----7-----|---------------------||------5------5---7-----7-----|-----------4---------||-------------5---5-----5-----|-2-4-2-0-------------||------5------5---------5-----|---------2---0-0-0-2-|
|
| +Q. E S S S S S S E W|-------------5---------------|---------------------||--------8b10---8-5-----------|---------------------||-(5)---------------7b9-7-5---|---------------------||---------------------------7-|---------------------||-----------------------------|---------------------||-----------------------------|---------------------|
N.C.(G) N.C.(E) |--3--| |--3---|
E E S S S S S E S S S S S S E E S S S S S E E E E|-----3h5p==3-----------------------|----------------------------||-------------3-0-------------------|-----0h10p==0---------10----||-----------------------------------|----------------7------7----||---5---------------------------5---|--------------9---9-9--9-9--||-------------------------3s==2---5-|-7--------------------------||-3----------------3--3-3-----------|---0------------------------|
|
| Q S S E +E E E E E E S E S Q E E|-----3h==5p==3---(3)---------------|----------------------------||-0---------------------------------|----------------------------||-0-----------------------4b6r======|==========7-----7------7----||-0-------------------5---------5---|-----9------------9----9-7--||-----------------------------------|-----7----------------------||-----------------------------------|-0-7------------------------|
Bm/D F#5/D |---3---|
E E S S S E S S E E S S|-7-----9-9h10p===9-7--------------------||-7-----7-7---------7---10p7-------------||-7-----7-7---------7----7---7---9---x-x-||------------------------9---9---9---x-x-||----------------------------------------||----------------------------------------|
|
| S S E S S S S S S S S S S E|----------------------------------------||-7h10-10-7h===10---7--------------------||------------------------9-7-------------||---------------------9------9-7---------||--------------------------------9-7-----||------------------------------------9---|
N.C.(B) N.C.(G) |-3-| E E E E S E S S S S S E E S S S E E E Q|-----------------------|-----3h5p3-----------3---||-----------------------|-----------3---------3---||-----------------------|---------------------4---||-----------------------|---5---------------5-----||-2-4-0-----x-----------|-------------------------||-------4-2-0-x---x-2---|-3--------------3--------|
|
| W Q E S S +E E E E|-----------------------|-------------------------||-----------------------|-------------------------||-----------------------|-4---4-----5p4-(4)---4---||-----------------------|-5---5-----5-------5---5-||-----------------------|-------------------------||-----------------------|-------------------------|
F#m N.C.(F) E Q S S +E S S +S S E E E E S S Q E E|--------------------------------|----------------------------||--------------------------------|-----------------------6----||-----7---------------------7----|--------5-----------------7-||-7---7---7s5-(5)---7-7-(7)---7--|-----7-----7h=8--7----------||-9-------5s7-(7)---5-5-(5)---5--|--8-------------------------||--------------------------------|----------------------------|
|
| S S Q. S S E E E E E E S S E E E E|--------------------------------|----------------------------||--------------------------------|----------------------------||-----7--------------------------|----10----------10----10----||------------------------7----7/-|-------10-------------------||-5s7----------9s10-9----5----5/-|-12-------12s13----10----10-||--------------------------------|----------------------------|
N.C.(A) |--3--|
Q S E S S S S E E E|--------5----------------------------||--------5-----------9h=12p9----------||--------6-----------9----------------||--------7-------------------11-------||--------------------------------9s11-||--5----------------------------------|
|
| E. S E S S +E E E E|-------------------------------------||-------------------------------------||-13--11s9---11s13-(13)------11-11s13-||-------------------------------------||-------------------------------------||-------------------------------------|
Bridge B/Eb D5/G |--3---|
S S S S S S S S E E S S S E|-------------------------------------5s=7s5-5-||--12h=14p12--------------------------3s=5s3-3-||--11--------11-------11--------------0------0-||--13--------11----13p11-----------------------||---------------14-------14--------------------||----------------------------------------------|
|
| +H Q Q|----------------------------------------------||-----------------------------14b16r====14-----||-(13)-----------------------------------------||----------------------------------------------||----------------------------------------------||----------------------------------------------|
D/B |-3--|
Q E S S S E S S E E|-----------------------------------||-----------9h12p9---------10-------||-----------9---------------7-------||------------------11--9----7-------||---------------------------9----9--||---------------------------7-------|
|
| S E. E E E S S S E.|-----------------------------------||-----------------------------------||-12s11--11s9-------9---------------||---------------------10s9-11s9-----||-----------------------------------||-----------------------------------|
Bm/D F#5/D N.C.(A) Q S S S S S S S S S S S S E. S Q H|------7h9-7h9--7-------9-7--------|------------------------------------||------7---7----7-10-10-7-7-10-7---|------------------------------------||------7---7----7--7--7-7-7--7-7---|------------------------------------||----------------------------------|------------------------------------||----------------------------------|------------------------------------||----------------------------------|--5---------------------------------|
|
| +Q. E H S S S E E S. T E. S E.|----------------------------------|------------------------------------||----------------------------------|------------------------------------||----------------------------------|-11s13-11-9---11s13----11s9--11s13--||-(9)------9s==14------------------|------------------------------------||----------------------------------|------------------------------------||----------------------------------|------------------------------------|
B5/Ab D5/G S S Q E E S S S S E|-------------------5s7s==5s==7s===5-||---7s=9-7----------3s5s==3s==5s===3-||---4s=6-4----------0----------------||---6s=8-6---------------------------||------------------------------------||------------------------------------|
|
| +H Q +S E.|------------------------------------||------------------------------------||-(13)--------14b16-----(14)-14b16r==||------------------------------------||------------------------------------||------------------------------------|
D/B |--3---|
H S S S E Q|------------------------------------||------------------------------10----||-------------------9h11p==9----7----||----------------------------9--7----||-------------------------------9----||-------------------------------7----|
|
| S S E +S E. S S E S E.|------------------------------------||------------------------------------||-11s12p11-(11)-9--11s===9s==7--7h9--||------------------------------------||------------------------------------||------------------------------------|
D5/B N.C.(C) S S Q S S E E Q Q E E Q E E|--------------------7h9p=7------------|------------------||-10s12s10------------------7----------|--------------x---||--7s=9s=7-----------------------------|----------------5-||--9s11s=9-----------------------------|----------------5-||--------------------------------------|---------5--------||--------------------------------------|-----5---5------5-|
|
| ~~| E S S S S E Q E T T S Q. E E Q.|--------------------------------------|------------------||--------------------------------------|------------------||------------------------11---9-9h11p9-|-5----------------||--9-----9s12s11-14s12-----------------|-------5-7-5------||--------------------------------------|------------------||--------------------------------------|------------------|
Outro C5/A N.C.(A) +Q E E H Q E E Q E E|---------------|--------------------------------||----------3----|--------------------------------||-(5)--5-0-5----|--------6---------------7---5---||-(5)--5-0-5----|--------7---------------7---5---||----------5----|--------------------------------||-(5)--5--------|-5------------------------------|
|
| W E E E S S S S S S S S S S|---------------|--------------------------------||---------------|-8b10-8-------------------------||---------------|--------7b9-7-5-----------------||---------------|----------------7-5-------------||---------------|--------------------7-6-5-3-----||---------------|----------------------------5-3-|
\1/ +E E E E H|--------------------------------------||-------------------3------------------||-(5)---5---5---0---5------------------||-(5)---5---5---0---5------------------||-------------------5------------------||--------------------------------------|
|
| S S S S S S S S S E S S S S S|--------------------------------------||--------------------------------------||--------------------------------------||-------------------5h==7-7b9r7p5------||---------3-5s7-5-7---------------7-5--||--0--3-5------------------------------|
N.CA/E) C5/A D5/A Csus2/D \1/ Q Q E E E E +Q E E H|---------------------|--------------------||----5----------------|-------------3------||----6-----5--5-7---5-|-(5)--5---0--5------||----7-----5--5-7---5-|-(5)--5---0--5------||----7----------------|-------------5------||-5--------5--5-5---5-|-(5)--5-------------|
|
| Q Q +Q Q +Q Q +H|----8----(8)---8-----|-(8)--8-----(8)-----||----5----(5)---5-----|-(5)--5-----(5)-----||----7b9--(7)---7b9---|-(7)--7b9---(7)-----||---------------------|--------------------||---------------------|--------------------||---------------------|--------------------|
N.C.(AA/E D5/A Csus2/D \1/ Q Q E E E E +Q E E E Q.|-----------------------|------------------||-------5---------------|------------3-----||-------6-----5-5-7---5-|-(5)--5-0---5-----||-------7-----5-5-7---5-|-(5)--5-0---5-----||-------7---------------|------------5-----||-5-----------5-5-5---5-|-(5)--5-----------|
|
| E E E E Q E E W|-------8-----8-------8-|------------------||-------5-----5---------|------------------||---7b9---7b9-----7b9---|------------------||-----------------------|------------------||-----------------------|------------------||-----------------------|------------------|
C/D C5/A C5/A Gmaj7sus4/CN.C.(A5/E) Q Q Q E E +Q Q E Q. W|------------------|----------------------|-----------------*||----x-------x-----|-------------7--------|-----------------*||----------------5-|-(5)--5----7-5--------|-----------------*||----------------5-|-(5)--5----5-5--------|-----------------*||------------------|-------------3--------|-----------------*||----------------5-|-(5)--5----5----------|-----------------*|
|
| Q H Q Q H E E Q E E E E Q|----8-------8-----|------8---------8-----|-5---------------*||----5-------5-----|------5---------5-----|-5----5-5--------*||----7b9-----7b9---|------7b9---------7b9-|----8---7b8r6----*||------------------|----------------------|-----------------*||------------------|----------------------|-----------------*||------------------|----------------------|-----------------*|
Duration Legend --------------- W - whole; H - half; Q - quarter; E - 8th; S - 16th; T - 32nd; X - 64th; a - acciaccatura + - note tied to previous; . - note dotted; .. - note double dotted Uncapitalized letters represent notes that are staccato (1/2 duration) Irregular groupings are notated above the duration line Duration letters will always appear directly above the note/fret number it represents the duration for. Duration letters with no fret number below them represent rests. Multi- bar rests are notated in the form Wxn, where n is the number of bars to rest for. Low melody durations appear below the staff Tablature Legend ---------------- h - hammer-on p - pull-off b - bend pb - pre-bend r - bend release (if no number after the r, then release immediately) /\ - slide into or out of (from/to "nowhere") s - legato slide S - shift slide - natural harmonic [n] - artificial harmonic n(n) - tapped harmonic ~ - vibrato tr - trill T - tap TP - trem. picking PM - palm muting \n/ - tremolo bar dip; n = amount to dip \n - tremolo bar down n/ - tremolo bar up /n\ - tremolo bar inverted dip = - hold bend; also acts as connecting device for hammers/pulls <> - volume swell (louder/softer) x - on rhythm slash represents muted slash o - on rhythm slash represents single note slash Misc Legend ----------- | - bar || - double bar ||o - repeat start o|| - repeat end *| - double bar (ending) : - bar (freetime) $ - Segno & - Coda Tempo markers - = BPM(8/16=s8/s16), where s8 = swing 8ths, s16 = swing 16ths 3. Crosstown Traffic Gtr I (D# G# C# F# A# D#) - 'Untitled' Gtr II (D# G# C# F# A# D#) - 'Untitled' Intro Q=116 Bsus4 4/4 Gtr II | | | | | | | | | | | | / / / / / / / / / / / /
Gtr I|--9------9--9------------------------------||--9------9--9--9--9--9--(9)--9--9--9--9--9-||-11b13==11-11-11-11-11-(11)-11-11-11-11-11-||-------------------------------------------||-------------------------------------------||-------------------------------------------|
| | | | | | | | | | | / / / / / / / / / / /
|----------------------9--9--9-----------|||--9--9--9--(9)--9--9--9--9--9-----------|||-11-11-11-(11)-11-11-11-11-11r-11-11-10-|||----------------------------------------|||----------------------------------------|||----------------------------------------||
C#7+9 F#7+9 | | | | | | | | | | | | | | | || | | | | | / / / / / / / / / / / / / / / // / / / / /
~~~~~~|----------------------------------|----------------------------||-------------------12-------------|----------------------------||-----------11s13------13s11-9-----|-11---9---------------------||------------------------------11--|----------------------------||----------------------------------|----------------------------||----------------------------------|----------------------------|
|
| Gtr III|----------------------------------|----------------------------||----------------------------------|----------------------------||----------------------------------|----------------------------||----------------------------------|-------------2-3-4-2b2.5----||-4-4-----------2-3--4-----2-------|--------2h4--------------4--||------2h4----------------------4--|--2-2-----------------------|
C#7+9 | | | | | | | | | | | / / / / / / / / / / /
|------------------------------------||--------------------12--------------||------------11s13------13s11-9------||-------------------------------11---||------------------------------------||------------------------------------|
|
|------------------------------------||-----5------------------------------||-----4------------------------------||------------------------------------||-4-4------------2-3--4-----2--------||-------2h4----------------------4---|
F#7+9 C#7+9 | | | | || | | | | | | | | | | | | | | | / / / / // / / / / / / / / / / / / / / /
~~~~~~|---------------------------|-----------------------------------||---------------------------|--------------------12-------------||-11---9--------------------|------------11s13------13s11-9-----||---------------------------|-------------------------------11--||---------------------------|-----------------------------------||---------------------------|-----------------------------------|
|
|---------------------------|-----------------------------------||---------------------------|-----5-----------------------------||---------------------------|-----4-----------------------------||-------------2-3-4-2b2.5---|-----------------------------------||--------2h4--------------4-|-4-4------------2-3--4-----2-------||--2-2----------------------|-------2h4----------------------4--|
F#7+9 | | | | || | | | | / / / / // / / / /
~~~~~~|----------------------------||----------------------------||-11---9---------------------||----------------------------||----------------------------||----------------------------|
|
|----------------------------||----------------------------||----------------------------||-------------2-3-4-2b2.5----||--------2h4--------------4--||--2-2-----------------------|
Bsus4 | | | | | | | | | | | | | || | | | | | | | | / / / / / / / / / / / / / // / / / / / / / /
~~~~~~~~~~~~~~~~~~ ~~~~~~~~~|---------------------------|---------------------------------------|||---------------------------|---------------------------------------|||---------------------------|-9-9--9-9-----9--9-(9)----9-9---9------|||---------------------------|-----------------------------------11\-|||---------------------------|---------------------------------------|||---------------------------|---------------------------------------||
|
| ~~~~~~|-0-0-0-0-0-0-(0)-0-0-0---0-|-0----0-0-----0--0--0------------------|||-0-0-0-0-0-0-(0)-0-0-0---0-|-0----0-0-----0--0--0------------------|||-4-4-4-4-4-4-(4)-4-4-4s6-6-|-6s9--9-9s11-11-11-11b13=======11r-----|||---------------------------|---------------------------------------|||---------------------------|---------------------------------------|||---------------------------|---------------------------------------||
Verse 1 & 2 Gtr III||------------|-----------|-----------|-----------|||o-5-5-------|-5-5-------|-5-5-------|-5-5-------|||--4-4-------|-3-3-------|-4-4-------|-3-3-------|||--3-3-------|-4-4-------|-3-3-------|-4-4-------|||o-4-4-------|-----------|-4-4-------|-----------|||------------|-----------|-----------|-----------|
|-----------|-----------|-----------||-3-3-------|-3-3-------|-----------||-2-2-------|-1-1-------|-7-6-------||-1-1-------|-2-2-------|-5-5-------||-2-2-------|-----------|-----------||-----------|-----------|-5-5-------|
Gtr I|-------------------------||-------------------------||-------------------------||-------------------------||-------------------------||-------------------------|
|
| Gtr III|-----------------------0-||-----------------------0-||-6-5-5-5-5-5-(5)-5-5-5---||-4-4-4-4-4-4--4--4-4-4---||-------------------------||-4-4-4-4-4-4-(4)-4-4-4---|
|
|-------------------------||-------------------------||-------------------------||-------------------------||-------------------------||-------------------------|
~~~~~~~~~~~~~~~~~~~~~~~~~~~~~~~~~~~~~~~~~~~~~~~|-----------------------------------------------------------|||---12----12---12-12------12-12-(12)---12-12-12------12b14\-|||-----------------------------------------------------------|||-----------------------------------------------------------|||-----------------------------------------------------------|||-----------------------------------------------------------||
|
|----0-------0--0-(0)---0--0------0-----0--0--0-------------|||----5-------5--5-(5)---5--5------5-----5--5--5-------------|||-4h=6-------6--6-(6)---4--6------6-----4--4--4-------------|||-----------------------------------------------------------|||-----------------------------------------------------7\----|||-----------------------------------------------------------||
|
| ~~~~~~~~~~~~~~~~~~~~~~~~~~~~~~~~~~~~~~~~~~~~~~~|-----------------------------------------------------------|||---12------------12-------------12----------12-------------|||---11b13---------11b13----------11b13-------11b13==(11)r\--|||-----------------------------------------------------------|||-----------------------------------------------------------|||-----------------------------------------------------------||
Chorus C#7+9 F#7+9 Gtr II | | | | || | | | | | | | | | | | | | | | | / / / / // / / / / / / / / / / / / / / / /
Gtr I|----------------------|--------------------------------------||----------------------|-------------12-----------------------||----------------------|-----11s13-------13s11-9----11-----9--||----------------------|-------------------------11-----------||----------------------|--------------------------------------||----------------------|--------------------------------------|
|
| Gtr III|----------------------|--------------------------------------||----------------------|--------------------------------------||----------------------|--------------------------------------||----------------------|---------------------2-3--4--2b2.5----||-4-4-------2-3-4-2----|-----------2h=4--------------------4--||------2h4----------4--|-2-2----------------------------------|
C#7+9 | | | | || | | | | | / / / / // / / / / /
|----------------------------||----------------------------||----------------------------||-11p9-----------------------||------11--------------------||----------------------------|
|
|----------------------------||---------5------------------||---------4------------------||----------------------------||--4----4--------2-3-4-2-----||-----------2h4----------4---|
F#7+9 C#7+9 F#7+9 | | | | || | | | | | | | | || | | | | | | | | | || | | | | / / / / // / / / / / / / / // / / / / / / / / / // / / / /
|-------------------------|-----------------------|-------------------------||-------------------------|-----5-----------------|-------------------------||-------------------------|-----4-----------------|-------------------------||-----------2-3-4-2b2.5---|-----------------------|-----------2-3-4-2b2.5---||------2h4--------------4-|-4-4--------2-3-4-2----|------2h4--------------4-||-2-2---------------------|-------2h4----------4--|-2-2---------------------|
1. Bsus4 Gtr II | | | | | | | | | | | | / / / / / / / / / / / /
Gtr I|---------------------------------------||---------------------------------------||---------------------------------------||---------------------------------------||---------------------------------------||---------------------------------------|
|
| Gtr III|--0--0--0--0--0--0--(0)--0--0--0--0--0-||--0--0--0--0--0--0--(0)--0--0--0--0--0-||-11-11-11-11-11-11-(11)-11-11-11-11-11-||---------------------------------------||---------------------------------------||---------------------------------------|
| | | | | | | | | | | / / / / / / / / / / /
~~~~~~~~~~~~~~~~~~~ ~~~~~~~~~~~~~|-------------------------------------------------|||------------------------------------------------o|||-----9--9---9--9---9--9-(9)--9-----9---9---(9)\--|||-------------------------------------------------|||------------------------------------------------o|||-------------------------------------------------||
|
| ~~~~~~|-----0--0---0--0---0--0--0---0-------------------|||-----0--0---0--0---0--0--0---0------------------o|||-11s13-13--13-13--13-13-13--13b16=====13r-(13)\--|||-------------------------------------------------|||------------------------------------------------o|||-------------------------------------------------||
Guitar Break 2.|--------------------------------|-------------------------------|||--------------------------------|-12-12-------------------------|||--------------------------------|-------------------------------|||--------------------------------|-------------------------------|||--------------------------------|-------------------------------|||--------------------------------|-------------------------------||
|
|---10---------------------------|-------7-7-(7)-7-7-------------|||--------------------------------|-------------------------------|||---10---10---10-(10)---10-9-9-8-|-------7-7-(7)-7-7-6-6-6-6-(5)-|||----9----9----9--(9)----9-8-8-7-|-------6-6-(6)-6-6-5-5-5-5--4--|||--------------------------------|-------------------------------|||-9----9----9---------9----------|--7------------------5-5-5--4--||
~~~~~~|---------------------|---------------------------||--------7-(7)-9-7----|---------------------------||-----/8-----------8\-|-------6b8-----6b8---6p4---||---------------------|-----6-------------------6-||---------------------|---------------------------||---------------------|---------------------------|
|
|---------------------|---------------------------||----------------6----|-------6-------------6---4-||------5-5-------6-4--|-4b5---6-----4h5-----6---4-||------4-4------------|---------------------------||---------------------|---------------------------||-4-4-------4--4------|-----4-----4-------4-------|
~~~~~~~~~~~~|-------------------------------||-------7b9-7b9====(7)r---------||-------------------------------||-------------------------------||-------------------------------||-------------------------------|
|
|-------------------------------||-------6-----------------6-----||-4b5---6--------4h=5-----6-----||-------------------------------||-------------------------------||-----4-----4-----------4---4-4-|
Gt Gtr II|-------------------------------------------------------|||-/15---15-15---15-15-15-15---15-15---15-15---15-15-----|||-/16---16-16---16-16-16-16---16-16---16-16---16-16-----|||-------------------------------------------------------|||-------------------------------------------------------|||-------------------------------------------------------||
|
| Gtr I|-------------------------------------------------------|||---7b9-----7b9-----7-----------------------------------|||-------------------------6b8-----6b8-----6b8-----6p4---|||-----------------------------------------------------6-|||-------------------------------------------------------|||-------------------------------------------------------||
|
| Gtr III|-------------------------------------------------------|||-------------------------------------------------------|||-------------------------------------------------------|||-------------------------------------------------------|||-------------------------------------------------------|||---4-------4-------5-----5-------5-------5-------5---0-||
Out-Chorus C#7+9 F#7+9 r II | | | | | | | | | | | | | | | || | | | | / / / / / / / / / / / / / / / // / / / /
|----------------------------------|-------------------------------------||----------------------------------|-------------------------------------||----------------------------------|-------------------------------------||----------------------------------|-------------------------------------||----------------------------------|-------------------------------------||----------------------------------|-------------------------------------|
|
| ~|----------------------------------|-------------------------------------||-------------------12-------------|-------------------------------------||-----------11s13------13s11p9-----|-11b13==(11)r-9----------------------||------------------------------11--|-------------------------------------||----------------------------------|-------------------------------------||----------------------------------|-------------------------------------|
|
|----------------------------------|-------------------------------------||-5-5------------------------------|-------------------------------------||-4-4------------------------------|-------------------------------------||-3-3------------------------------|-------------------------------------||-4-4-----------2-3--4-----2-------|---------------------2-3-4-2b2.5-----||------2h4----------------------4--|--2-------2-----2h4--------------4---|
Bsus4 Gtr II | | | | | | | | | | | | | | | | | | | | | | | / / / / / / / / / / / / / / / / / / / / / / /
Gtr I|----------------------------------|----------------------------------||-12-12-12-12----------------------|----------------------------------||-------------9-9-(9)-9-9----------|---------------------9b9.5-9b9.5==||-------------------------11-11-11-|-9-9-9-(9)-9-9-9-9-9--------------||----------------------------------|----------------------------------||----------------------------------|----------------------------------|
|
| Gtr III|--0--0--0--0-0-0-(0)-0-0--0--0--0-|-0-0-0-(0)-0-0-0-0-0-0------------||--0--0--0--0-0-0-(0)-0-0--0--0--0-|-0-0-0-(0)-0-0-0-0-0-0------------||--4--4--4--4-4-4-(4)-4-4--4--4--4-|-4-4-4-(4)-4-4-4-4-4-4------------||----------------------------------|----------------------------------||----------------------------------|---------------------------x\-----||----------------------------------|----------------------------------|
C#7+9 | | | | | | | | | | | / / / / / / / / / / /
|-------------------------------------||-----------------------12-12s14-12---||-(9)r\---------11s13-----------------||-------------------------------------||-------------------------------------||-------------------------------------|
|
|-------------------------------------||-------------------------------------||-------------------------------------||--3----3-----------------------------||--4----4-----------2-3--4-----2------||----------2h4--------------------4---|
F#7+9 Bsus4 | | | | || | | | | | | | | | | | | | | | / / / / // / / / / / / / / / / / / / / /
~~|---------------------------|------------------------------------------||---------------------------|-12-12-12-12-12-12b14==(12)-12-12-12r\----||-13---11\------------------|------------------------------------------||---------------------------|------------------------------------------||---------------------------|------------------------------------------||---------------------------|------------------------------------------|
|
|-------------------------0-|--0--0--0--0--0--0------(0)--0--0---------||-------------------------0-|--0--0--0--0--0--0------(0)--0--0---------||---------------------------|--4--4--4--4--4--4------(4)--4--4---------||---------------------------|------------------------------------------||---------------2-3-4-2h4---|-----------------------------------5\--x\-||--2-2-----2h4--------------|------------------------------------------|
C#7+9 | | | | | | | | | | | / / / / / / / / / / /
~~|-----------------------------------||-------12----14--------------------||-11s13-----------13s11p9----11-9---||-------------------------11--------||-----------------------------------||-----------------------------------|
|
|-----------------------------------||-----------------------------------||-----------------------------------||----/3--3--------------------------||----/4--4------------2-3--4--2-----||-----------2h=4----------------4---|
F#7+9 | | | | || | | | | / / / / // / / / /
~~|-----------------------------||-----------------------------||-11b13---11------------------||-----------------------------||-----------------------------||-----------------------------|
|
|---------------------------0-||---------------------------0-||-----------------------------||-----------------------------||-----------------2-3-4-2h4---||--2----2----2h4--------------|
Bsus4 | | | | | | | | | | | | / / / / / / / / / / / /
|--------------------------------------------------------||--------------------------------------------------------||-11-11b13-11-11b13-11-11b13==(11)r-11-11b13-11-11b13-11-||--------------------------------------------------------||--------------------------------------------------------||--------------------------------------------------------|
|
|--0--0-----0--0-----0--0------(0)---0--0-----0--0-----0-||--0--0-----0--0-----0--0------(0)---0--0-----0--0-----0-||--4--4-----4--4-----4--4------(4)---4--4-----4--4-----4-||--------------------------------------------------------||--------------------------------------------------------||--------------------------------------------------------|
| | | | | | | | | | | / / / / / / / / / / /
|---------------------------------------------------||------------------------12-------------------------||--11b13-11-11b13==(11)-----11r(11)p9------11--9b10-||-------------------------------------11------------||---------------------------------------------------||---------------------------------------------------|
|
| ~~~~~~~~~~~~~~~~~~~~~|---0-----0--0------(0)---0------0-----0------------||---0-----0--0------(0)---0------0-----0------------||-/16----16-16b18==(16)--16-----16----16r-----------||---------------------------------------------------||-------------------------------------------x\------||---------------------------------------------------|
C#7+9 F#7+9 | | | | || | | | | | | | | | || | | | | | / / / / // / / / / / / / / / // / / / / /
|-------------------------------|-------------------------------*||---------------------------12--|-------------------------------*||---------------------11s13-----|-11-11-13---9------11s13-9-----*||-------------------------------|-------------------------------*||-(11)\-------------------------|-------------------------------*||-------------------------------|-------------------------------*|
|
|-------------------------------|-------------------------------*||-------------------------------|-------------------------------*||-------------------------------|--3--3-------------------------*||-------3-----------------------|--4--4-------------------------*||---4---4-------2-3-4-----2-----|---------------2-3-----4-2-----*||----------2h4---------------4--|----------2h4--------------4---*|
4. Voodoo Chile Sorry Guys but i havent done this one yet. It is Verrrrry Complicated!!!! It Is Almost Impossible to tab!!!! if you want just tune ur guitar down half a step and much around with some licks over the track Sorry Guys! :( 5. Little Miss Strange
Intro:(acoustic)--0----0---0--0----0---0---0---0---0---0---0----0---0---0---0---0---0-|-13---13--13-13---12--12--12--12--12--12--12---10--10--10--10--10--10-|-14---14--14-14---12--12--12--12--12--12--12---11--11--11--11--11--11-|--0----0---0--0----0---0---0---0---0---0---0----0---0---0---0---0---0-|----------------------------------------------------------------------|----------------------------------------------------------------------|
--0----0---0--0----0---0---0---0---0---0---0----0---0---0---0---0---0-|-13---13--13-13---12--12--12--12--12--12--12---10--10--10--10--10--10-|-14---14--14-14---14--14--14--14--14--14--14---11--11--11--11--11--11-|--0----0---0--0----0---0---0---0---0---0---0----0---0---0---0---0---0-|----------------------------------------------------------------------|----------------------------------------------------------------------|
guitar 1------------------------------15(17)--15(17)15p13----13-15-|-/15---15-15----/15---15-15-----------------------15-------|-----------------------------------------------------------|-----------------------------------------------------------|-----------------------------------------------------------|-----------------------------------------------------------|
guitar 2------------------------------------------------------------|-/13---13-13----/13---13-13---13(15)13----------------------|---------------------------------------12(14)12--10--12--10-|------------------------------------------------------------|------------------------------------------------------------|------------------------------------------------------------|
guitar 1-15(17)15-13---------------------------------|-------------15--15--------------------------|--------------------------7--9p7----9p7---7--|-----------------------/9--------9-----------|---------------------------------------------|---------------------------------------------|
guitar2---------------------------------------------------|---------------------------10--12p10------10h12-10-|-12(14)12-10-----------/11------------11-----------|-------------12--12--------------------------------|---------------------------------------------------|---------------------------------------------------|
guitar 1--------------------------------------|-----10--12p10----10(12)-10--10(12)10-|-/11-----------11---------------------|--------------------------------------|--------------------------------------|--------------------------------------|
guitar2----------------------------------------|-----15-17p15----17(19)-17(19)-17(19)17-|-/16----------16------------------------|----------------------------------------|----------------------------------------|----------------------------------------|
chorusguitar 1 (2x)||--------------------------------------||||-15(17)-15(17)-15(17)-15(17)-15(17)15-||||--------------------------------------||||--------------------------------------||||--------------------------------------||||--------------------------------------||
guitar 2 (2x)||-------------------------------||||-------------------------------||||-14(16)-14(16)-14(16)-14(16)14-||||-------------------------------||||-------------------------------||||-------------------------------||
solo:
guitar 1-10---------------------------10-------------|----12-10------------------10-----13-13(15)--|----------12p10-----12/13--------------------|----------------12---------------------------|---------------------------------------------|---------------------------------------------|
guitar 2-----------------------------------12(14)12--10---------------|------------------------------------------------12-10---------|------------------------------------------------------12-11---|-----------------------------------------------------------12-|--------------------------------------------------------------|--------------------------------------------------------------|
(guitar 1 plays intro figure)
guitar 2--------10--------------------------------------|-13(15)----13-10-----------------------10-------|-----------------12(14)-12-10----10h12----10----|------------------------------12-------------12-|------------------------------------------------|------------------------------------------------|
---------------------------------------------------------------------|-----------------------------------------------------------13--------|--12(14)-12-10-------12(14)-12-10----12(14)-12-10----12(14)---12(14)-|---------------12-10--------------12--------------12-----------------|---------------------------------------------------------------------|---------------------------------------------------------------------|
----------------------------------------------------------------10--------------|-------------------------------------------------------------10----13-10--------|-----10-12-10---------------------------------------10h12-12-------------12(14)-|-/12----------12-10(11)----------10----------10--12-----------------------------|------------------------12-10h12----10-8-/12------------------------------------|--------------------------------------------------------------------------------|
-------------------10----------------------------------------------|----------------10-------15(17)-15(17)-15(16)-15(17)---15(17)15-12-|-12-10----10h12----------------------------------------------------|-------12----------------------------------------------------------|-------------------------------------------------------------------|-------------------------------------------------------------------|
---------------------------------------------------------|---------------------------------------------------------|-14(16)-14-12-14-12-------12(14)--12(14)---12--12(14)-12-|--------------------14-12--------------------------------|---------------------------------------------------------|---------------------------------------------------------|
-------------------------------------------------------------|-------------------------------------------------------------|----14p12----12-14-14(16)14-12-14p12----14-14(16)14-12-14-14-|-14-------14-------------------------14----------------------|-------------------------------------------------------------|-------------------------------------------------------------|
third chorusguitar 1-15(17)-15(17)-15(17)-15(17)--15--||--15-12----------------------||----------------------------------||--------15-12----------------||----------------------------------||--------------14-12----------||----------------------------------||--------------------14-12-14-||----------------------------------||-----------------------------||----------------------------------||-----------------------------||
guitar 2----------------------------------||-----------------------------||-15(17)-15(17)-15(17)-15(17)--15--||--15-12----------------------||----------------------------------||--------15-12----------------||----------------------------------||--------------14-12----------||----------------------------------||--------------------14-12-14-||----------------------------------||-----------------------------||
outro:wah-wah (3x) F# B/F#||-6p2---6p2---7p2---7p2---||-6p2---6p2---6p2---6p2--|||-----2-----2-----2-----2-||-----2----2-----2-----2-|||-------------------------||------------------------|||-------------------------||------------------------|||-------------------------||------------------------|||-------------------------||------------------------|
(3x) (G# C#/G#)4x||-8p4---8p4---9p4---9p4---||-8p4---8p4---8p4---8p4--|||-----4-----4-----4-----4-||-----4----4-----4-----4-|||-------------------------||------------------------|||-------------------------||------------------------|||-------------------------||------------------------|||-------------------------||------------------------|
guitar 1 (3x) (A# D#/A#)4x||-10p6---10p6---8p6---8p6---||-10p6---10p6---10p6---10p6--|||-----6------6-----8-----8--||-----6------6------6------6-|||---------------------------||----------------------------|||---------------------------||----------------------------|||---------------------------||----------------------------|||---------------------------||----------------------------|
guitar 2 (3x)||-10p6---10p6---11p6---11p6---||-10p6---10p6---10p6---10p6--|||-----6------6------6------6--||-----6------6------6------6-|||-----------------------------||----------------------------|||-----------------------------||----------------------------|||-----------------------------||----------------------------|||-----------------------------||----------------------------|
(E A)4x----------------------------------------------------------------------|-15-15-15-15----15-15-15-15---15-15-15-15---14-14--12--12-----12------|-16-16-16-16----16-16-16-16---16-16-16-16---14-14--12--12(13)-12(13)--|----------------------------------------------------------------------|----------------------------------------------------------------------|----------------------------------------------------------------------|
guitar 1----------------|----12----------|-12----12-12-12-|----------------|----------------|----------------|
guitar 2--------------------------------|----------------------12-15(17)-|----12----------12-14-----------|-14----14-12-14-----------------|--------------------------------|--------------------------------|
guitar 1 (2x) (A G/A E)2x||--7h9p7--5h7p5--4h5p4--2h4p2--0---0----||||-------------------------------------3-||||---------------------------------------||||---------------------------------------||||---------------------------------------||||---------------------------------------||
guitar 2||--------------------------------------||||--5h7p5--4h5p4--2h4p2--0h2p0----------||||-------------------------------2---1--||||--------------------------------------||||--------------------------------------||||--------------------------------------||
----------------------|----------------------|-7-/6-----/9--7--6----|-------7------------7-|----------------------|----------------------|
guitar 1 A G/A E--7h9p7--5h7p5--4h5p4--0--|--------------------------|--------------------------|--------------------------|--------------------------|--------------------------|
guitar 2------------------------------|--5h7p5--4h5p4--2h4p2---------|-----------------------2---1--|------------------------------|------------------------------|------------------------------|
A G No one knows where she comes from Maybe she's a devil in disguise I can't tell by looking in her eyes D C D Little Miss Strange D C D Little Miss Strange C D Little Miss Strange came into my parlor A G I don't know just what to ask her G I don't remember what we did after (chorus) (solo) E7 A7 E7 A7 E7 A7 E7 A7 B A Little Miss Strange came out of the darkness D/A Walked across my head, I stood beneath the light A I told you about the dream I had the other night E D E Little Miss Strange E D E Little Miss Strange 6. Long Hot Summer Night Guitar I
D#||----------------------------|----------------------------|A#||----------------------------|----------------------------|F#||---------------------3------|----------5--5--------3-----|C#||----------2b-2b------2------|------0---4--4--------2-----|G#||--------2----------0--------|--------0-------------------|D#||--0-2-4--------0-2-2--------|--0-4-----------0-2-2-------|
----------------------------|-------------------------------|----------------------------|-------------------------------|---------------------3------|----------5--5-----------------|----------2b-2-------2------|----------4--4--2--------------|--------2-------------------|------------------4-2----------|--0-2-4--------0-2-2--------|--0-4-4-4-------------4-3-2-0--|
--------4--x-x-------2--x-x-|--x----4--x-x----x-x-x-----|--------4--x-x-------2--x-x-|--x----4--x-x----x-x-x-----|--------4--x-x-------3--x-x-|--x----5--x-x----x-x-x-4---|--------3--x-x-------4--x-x-|--x----6--x-x-4--x-x-x-4---|--4--4----------------------|---------------------------|---------------2--2---------|---------------------------|
-------4-----------x-x-x---|-------------------------|-------4-----------8-x-x-8-|-------------------------|-------4-----------8-x-x-8-|--------5----------------|-------3-----------8-x-x-8-|--------6----4-----4-4---|--4--------4-6--6----------|--------6-------2--2-2---|---------------------------|--4--4-------------------|
-----------x-x-------2-x-x-x-|--------4--x-x---------------|--------6--x-x-------2-x-x-x-|--------4--x-x------3-3-3----|--------6--x-x-------3-x-x-x-|--------5--x-x----4-4-4-4-4--|-----6--6--x-x-------4-x-x-x-|--------6--x-x----5-5-5-5-5--|--4--------------------------|------------------5-5-5-5-5--|---------------2--2----------|--4--4---------3-------------|
----------------------------|--------------------------|--0-----------0------|----------------------------|--------------------------|--5--------------2---|----------------------------|-----4--------------------|--1------3-----------|--4-----x-------------------|-----4--------------------|--4------4-----------|-----1--2--3--4-------------|--7-------6--------9------|--0------4-----------|--------x--------0-0-1-1-2--|----------7----11-----11--|---------2-----------|
----------------------|-------------------------|----------------------------|--4--4--4--6----------|-------------------------|-------6--x-x-------2-x-x---|--4--4--4--6----------|-------------------------|-------6--x-x-------3-x-x---|--4--4--4--6----------|-------------------------|-------6--x-x-------4-x-x---|--2--2--2--4----------|---------2-4-2-4-2-4-----|--4-----------------4-x-x---|----------------------|---------------------0---|--------------2--2----------|
------4----------------|------------------x------|--------4----------------|------4----------------|-------6----------6-x--6-|--------4----------------|------5------------4---|-------6----------6-x--6-|--------5----------------|------6------------4---|-------6----------5-x--5-|--------6----------------|-----------------2-2---|--4---------6--6--x------|--6--6-------------2-2---|-----------2--2--------|-------------------------|-------------2--2--------|
-----------------------|-------4--x-x-------3-----|-------6----------2----|-------4--x-x-3--3--3--3--|-------6----------3----|-------5--x-x-4--4--4--4--|-------6----------4----|-------6--x-x-5--5--5--5--|--4---------------4----|--------------5--5--5--5--|------------2--2-------|--4-----------3--3--3--3--|
-------------------------------|-------------------------------|--2--2--0--2-2-2-2-2-----------|--2--2--0--2-2-2-2-2-----------|--3--3-----3-3-3-3-3---3r3-----|--3--3-----3-3-3-3-3---3r3-----|--4--4-----4-4-4-4-4-4-----4-4-|--4--4-----4-4-4-4-4-4-----4-4-|-------------------------------|-------------------------------|-------------------------------|-------------------------------|
-------------------------------|-----------------------------|--2--2--0--2-2-2-2-2-----------|-----------------------------|--3--3-----3-3-3-3-3---3r3-----|-----------------------------|--4--4-----4-4-4-4-4-4-----4-4-|-----4-----------------------|-------------------------------|--7-----7--6---------9----9--|-------------------------------|-----------7----9/11---11----|
-------------0---0--------|----------------------|--------------------------|--5------------2----------|----------------------|--------------------------|--1------3---------3------|-----------6----------|--6-6-6---4--9-----6--4---|--4------4------------4-4-|-----4-----6----------|--6-6-6---4--9-----6--4---|--0------4----------------|--2-----2--4----------|--4-4-4---2--7---x-4--2---|---------2----------------|----------------------|--------0--------0--------|
--x--x-x-4----x--x-x-4----|--------2--------2-----2-2--|--x--x-x-4----x--x-x-4----|--------2--------2-----2-2--|--x--x-x-5----x--x-x-5----|--------3--------3-----3-3--|--x--x-x-6----x--x-x-6----|--4--4--4--------4-----4-4--|---------6----------------|--4--4-------4-4---4-4------|---------4----------------|--2--2-------2-2---2-2------|
---------4-------------------|-----------------------------|---------4-------------------|-----------------------------|---------5-------------------|-----------------------------|---------6-------------------|-----------------------------|-----------------------------|-----------------------------|--4-4-4-------4-4-4-4-8-8-4--|--2--2--2--2-2-2--2--2-2-2-2-|
---------4------------4------|----------2------------2------|---------4------------4------|----------2------------2------|---------5------------5------|----------3------------3------|---------6------------6------|----------4------------4------|-----------------------------|------------------------------|--4-4-4-------4-4-4-4----4-4-|--2-2-2-2------2-2-2-2----2-2-|
----------4----------------------|----------------------------------|----------4--------------4-4-4-4-|----------------------------------|----------5--5-5-5-5-5-5-5-5-5-5-|--8-8-8-8-8-8-8-8-8-8-8-8-8-8-8-8-|----------6--6-6-6-6-6-6-6-6-6-6-|--9-9-9-9-9-9-9-9-9-9-9-9-9-9-9-9-|-------------6-6-6-6-6-6-6-6-6-6-|--9-9-9-9-9-9-9-9-9-9-9-9-9-9-9-9-|--4-4-4-4----4-4-4-4-4-4-4-4-4-4-|--7-7-7-7-7-7-7-7-7-7-7-7-7-7-7-7-|
-----------------------|------------------------|--------4----------------|-------------2--2------|--------6----------2----|--------4----------6-6---|-------------3--3------|--------6----------3----|--------5----------7-7---|--11---------4--4------|--------6----------4----|--------6----------8-8---|--11---------4--4------|--4--4------------------|--------6----------8-8---|--9------x-------------|-------------2--2-------|--4--4-------6--6--------|
-------------------4----|------------------------|----------------4----4---|--------8----------4----|--------6----------4----|--------8-------4----4---|--------8----------5----|--------7----------5----|--------8-------5----5---|--------8----------6----|--------8----------6----|--------8-------6----6---|--6--6-------------6----|--------8----------6----|--6--6----------6----6---|-------------4--4-------|--6--6-------4--4-------|-------------4-----4-----|
--------------------------|-------------------2/4---|--------------------------|--------8----------2/4---|--7--------6--------------|--------8----------3/5---|--8----------8-7-6--------|--------8----------------|--8----------------9-6----|--6--6-------------------|--6--------------------9--|-------------4--4--------|
--------6------------4-2---|-----------------------------|--------6------------4-2---|-------8-----------10-10--10-|--------8------------5-3---|-------8-----------8--8---8--|---------------------------|-------8-----------10-10--10-|---------------------------|--6--------7-8--8------------|--6--6-------4-4-4-4-------|-----------------------------|
--------------------------|------------------4-4-4--|--------6--6--------5--|--------------------------|-------8----------4-4-4--|--------6--6--------5--|--------7--7----3----3----|-------8----------5-5-5--|--------7--7--------6--|--------8--8------4----4--|-------8-----------------|--------8--8--------7--|--------8--8--------------|--6----------------------|-----------------------|--6--6--------------------|------------4--4---------|--6--6--------5--5-----|
------------------------|----------------------|------------------------|------------------------|----------------------|------------------------|----------------6--4~---|----------------------|--4--4--4--5------------|-----6--4--6----6--4~---|--4-----4-------------|--4--4--4--6------------|-----6--4--6------------|-----4-----6----------|--2--2--2--6------------|--4---------------------|----------------------|-----------4------4--4--|
----------------------|---------------------------|----------------------|---------------------------|----------------------|---------------------------|--------6--8----------|---------------------------|--4--8-----6----------|--6--4---------------------|----------------------|--------6--5--4--2--0-0-2--|
------------------------------|--------------------------------|-----------------------7------|--------------------------------|----------------5--5-5-5--5-5-|--7--7-7-7-7-7-7-5-5-5-5-3-3--3-|----------------6--6-6-6--6-6-|--8--8-8-8-8-8-8-6-6-6-6-5-5--5-|--6--6-6-6-6-6--6--6-6-6--6-6-|--8--8-8-8-8-8-8-6-6-6-6-5-5--5-|----------------4--4-4-4--4-4-|--6--6-6-6-6-6-6-4-4-4-4--------|
--------------------------|--------6-----------------|--------------------x-|--------4-------------6---|--------6-----------------|------9-------------x-|--
Tap to rate this tab
 
# A B C D E F G H I J K L M N O P Q R S T U V W X Y Z