Jimi Hendrix - Lover Man tab

This is a pretty over looked song but it has a good sound to it and it's harder to play
and sing at the same time but still a cool song. Its not completely my song. But nobody
else has botherd to get this tab out there.

eb||-------------------------------------------------|Bb||-------------------------------------------------|Gb||-------------------------------------------------|Db||--7h9p7h9p7-9-7-9--7h9p7h9-9-7h9p7h9p7-7h9p7h9p7-|Ab||--x-------------x--x---------x---------x---------|Eb||--7-------------7--7---------7---------7---------|
----------------------------------------------|----------------------------------------------|----------------------------------------------|--7h9p7h9p7h9p7h9p7h9p7-7h9-7h9p7h9p7-7h9-7h9-|--x---------------------x---x---------x---x---|--7---------------------7---7---------7---7---|
------------------------------------------------------|------------------------------------------------------|------------------------------------------------------|--7h9p7h9p7h9p7h9p7h9p7-7h9p7h9p7-7h9p7p7h9-7h9p7p7h9-|--x---------------------x---------x---------x---------|--7---------------------7---------7---------7---------|
---------------------------------------------------|---------------------------------------------------|---------------------------------------------------|--7h9p7-9p7-9p7-9p7-9p7-7h9p7h9p7-7h9p7h9-9-7h9-9--|--x---------------------x---------x-------x-x---x--|--7---------------------7---------7-------7-7---7--|
------------------------------|------------------------------|--7---------------------------|--7---------------------------|--7---------------------------|--7b--------------------------|--7--9p7h9p7-9---9-9-9-9--9-9-|-----9-9-9p7-9--9-9-9--9--9-9-|--x--x-------x---x-x-x-x--x-x-|---------x---x--x-x-x--x--x-x-|--7--7-------7---7-7-7-7--7-7-|---------7---7--7-7-7--7--7-7-|
---------------------------------|--------------------------------|---------------------------------|--------------------------------|--9r-9-7------------------9------|--7b----------------------------|--x-------9-9-7h9-9-------9--9-9-|--x--9-9-9p7-9--9-9-9-9-9-9-9-9-|--x-------x-x-x---x-------x--x-x-|--x--x-x-x---x--x-x-x-x-x-x-x-x-|--7-------7-7-7---7-7-7-7-7--7-7-|--7--7-7-7---7--7-7-7-7-7-7-7-7-|
--10----7----------------------|--10--------------------------|--10----7----7-----------------|--10----7----7--7-7-7--7--7-7-|--x-----x----7-----------------|--------7----x--x-x-x--x--x-x-|--9---9-9-------9-9-9p7-9------|------9-7h9--9--9-9-9--9--9-9-|------x---------x-x-x---x------|------x------x--x-x-x--x--x-x-|------7----7----7-7-7---7--7-7-|------7------7--7-7-7--7--7-7-|
-----------------------------|------------------------------|-----------------7-----------|-------------7--7-7-7---------|--------7b-7-9---7-----7-----|-------------x--x-x-x---------|--7h9-9-x----x-----7h9-x--9--|--7h9-9-9--9-9--9-9-9--9--9-9-|--x---x-x----x-----x---x--x--|--x---x-x--x-x--x-x-x--x--x-x-|--7---7-7----7-----7---7--7--|--7---7-7--7-7--7-7-7--7--7-7-|
---------------------------7--|-------------------------------|----------------9----7-----7--|---------------9-----7---------|----------7-7---9----7-----x--|----------7b---9-----7b--------|--7h9-9-9-----9----9----9--9--|--7h9-9-9-x--9---9-9----9--9-9-|--x---x-x-----x----x----x--x--|--x---x-x-x--x---x-x----x--x---|--7---7-7-----7----7----7--7--|--7---7-7-7--7---7-7----7--7---|
--------------------------------|------------------------------|--------------9--7-------9------|--------------------------7-7-|--------7-----9--7-10----9----7-|------9----9-9--7--7------x-x-|--7h9-9-7h9-9----x-10----x--9-x-|------x----x----x--x---9--9-9-|--x---x-x---x----x-x-----x--x-x-|------x----x----x--x---x------|--7---7-7---7----7-7---7-7--7-7-|--7-7-7--7-7----7--7-7-7------|
----------------------------------------|--------------------------------------|----------------------------------------|--------------------------------------|----------------------------------------|---------------------------9b-9-7-----|--7h9-9-9-7h9-7h9p7h9p7-7--9--7h9p7h9p7-|----7h9p7h9p7-7h9p7h9p7-9---------9p7-|--x---x-x-x---x------------x--x---------|----x---------x---------x---------x---|--7---7-7-7---7------------7--7---------|----7---------7---------7---------7---|
----------------------------|--------------------------|----------------------------|--7----7------------------|---------------9b-9-7-------|--x----x----7--9b-9-7-----|--9----9----9---------9-7-9-|--9----9----9---------9-7-|--x----x----x---------------|--x----x----x-------------|--7----7----7---------------|--7----7----7-------------|
-------------------------------|------------------7--7------|-------------------------------|---------------5--5--5------|--9b-9-7-----9r-9p7-----9b-9-7-|------6--6---6-6--6--6--6-6-|---------9-7--------9-7--------|--9\5-7--7---7-7--7--7--7-7-|-------------------------------|------x--x---x-x--x--x--x-x-|-------------------------------|------5--5---5-5--5--5--5-5-|
-----------------------7---|--7-------------------------|--------------------9--7---|--7-------------------9-----|---------9----------9--7h8-|--8p7------9----------9-----|--9------9--7~-------------|-----------9--7~------9-----|--x------------------------|----------------------------|--7/-11----------7---------|------9/11---------7-----0--|
---------------------------7--|---------------------------|-----------------------7/9-7--|--9\7----------------------|--7h8------------------x------|--x------------------9--7--|-----------9--7~-------7/9----|--9\7-----9--7~---7--9--6--|------------------------------|---------------------------|------7/11---------7\5--------|------11-------------------|
--------------------------|----------------------------|-----------7--------------|---------------7------------|--8--------7b-------------|--7h8----------7------------|--7-----9-------7--9------|--7---7--9--7-----7h9-9--7--|----------------x--x--0-0-|--x-------------------------|-----7----------5--7------|--7-------------------------|
---------------------------|----------------------------|--------------------9--7---|---------------------9--9-9-|--------------------9--7h8-|----------9----------9--9-9-|--7\-----9--7~---7--9------|--9-------9--7----7--9--9-9-|---------------------------|--x---------------------x-x-|-----11--------------------|--7--9/11---------------7-7-|
------------------------------|--------------------------|-----10--------------7--------|--------------------------|---------9b-9b-------7------x-|--------------------7-----|-----------------7h9----9p7-x-|--7-----------7--9-----9--|--7---------------------------|--x--7--9--7--------------|------------------------------|--7-----------------------|
-----------------------7---|---------------------------|--------------------9--7---|------------------7--9-----|---------9-------7--9--7h8-|----------9-------7--9-----|---------9--7----7--9------|----------9--7----7--9-----|---------------------------|------------------------9--|--7/-11--------------------|--10/-11-------------------|
--------------------------------|-----------------------------|--------10-10-----------10------|-----------------------------|--------9--9--9-9-9-----9-------|--9--9------9----------------|--------------x-x-x-----8-------|--9--9--11--9--9--9--11----9-|--9--9------------9--9--9---9-7-|--7--7--7---7--7--7--7-------|--------------------------------|------------------7------0---|
---------------------------|----------------------------|--------------------9------|------------------5--5-5----|---------9--7----9--9------|-----6--6--6-6-6--6--6-6----|--9------9--7----7--9--7-9-|-----7--7--7-7-7--7--7-7----|--x------------------------|-----x--x--x-x-x--x--x-x----|--7/-11--------------------|--0--5--5--5-5-5--5--5-5-0--|
------------------7--------|--------------------------|--------7----7--7---7------|--------------------------|-----9b-9b---9b-----7--7---|--------------7-----------|--9--------------------9-9-|--9--7--9--9-----7--9--7--|--x------------------------|--------------------------|--7------------------------|--------------------------|
-----------------------------|---------------------------|----------------------9--7-7-|--7-----------------9--9-9-|-----------9----------9--7-8-|--8------9----------9--9-9-|--7\-------9--7~---7--9------|--9------9--7~---7--9--9-9-|-----------------------------|--x------------------------|-----10/11-------------------|--7/-11--------------------|
----------------------------|---------------------------|-----10--7--10--------------|-----------------10--------|----------------9b---9p7----|---------------------9b-9r-|-------------------------9--|--9--7--9--7--7------------|--7-------------------------|---------------------------|----------------------------|---------------------------|
-----------------------------|-----------------------------------|-----------------------------|-----------------------------------|--9p7----7h9-7~-------7-7----|-----------------------------------|------9-----------9p7-7-7----|-------------7h9p7h9p7------7--7-7-|--------------------------9--|--10--7---------------------7------|-----------------------------|---------10b-------------7---------|
---------------------------------|-----------------------------|---------10--10-10-10------------|-----------------------------|---------9---9--9--9------9--9-9-|----------------9------------|-----11------------8------8--8-8-|--9--9--11--9-9-9--9--11--9--|--9--9-------------9------9--9-9-|--7--7--7---7-7-7--7--7---7--|-----------------------9---------|-----------------------------|
---------------------------|----------------------------|-----------------------7---|------5--5---5--------------|-----------------7--9--7-8-|------6--6---6----9b-9-7----|--9------9--7~---7--9------|--9\7-7--7---7-7---------9--|--x------------------------|--x---x--x---x-x---------x--|--7/-11--------------------|--7\5-5--5---5-5---------7--|
--------------------------|-------------------------|--------------------------|-------------------------|---------------9b-7-------|------------7--9b-7------|--9----9----9-------9-7h9-|--9----9----9-------9-7--|--x----x----x-------------|--x----x----x---------x--|--7----7----7-------------|--7----7----7---------5--|
-------------------------------|---------------------------|-------------------------------|---------------------------|--9b-9-7-----9b-9-7-----9b-9-7-|-------------6-6--6--6--6\-|---------9h7--------9p7--------|--9--7-7-7---7-7--7--7--7\-|-------------------------------|-----x---x---x-x--x--x--x--|-------------------------------|-----5---5---5-5--5--5--5\-|
---------------7----------|------------------------------------|-----7--7--10b------------|------------------------------------|--8---------------9--7b---|-------11--11-----------------------|--------------------------|--9h13----------------9h11p9-----9--|--------------------------|---------------9/-11---------11-----|--------------------------|------------------------------------|
----------------------------|--------------------------------|----------------------------|--------------------------------|-------------11r----11\7~---|--9p7----7--9/-11--9h11p9\7--9--|------9/13------------------|------9-------------------------|----------------------------|--------------------------------|--10------------------------|--------------------------------|
--------------------------|----------------------7------|--------------------------|-------------------7-----10--|-----7/-9~---9\7----9\-4/-|--19---------7--9b-----------|--9--------------9--------|----------9------------------|--------------------------|------19\--------------------|--------------------------|-----------------------------|
--------7-------------7-------|--7-10-7------7-------------|--12~------7--10--10b---7--10b|-------7-7h10-7--10b--------|------------------------------|----------------------------|------------------------------|----------------------------|------------------------------|----------------------------|------------------------------|----------------------------|
----------7---------------|-------------------------------|------------10--7h9p7-----|--7--------------10------------|-----------------------9--|----9p7----7--9b-----9b-9p7----|--------------------------|--------9-------------------9--|--------------------------|-------------------------------|--------------------------|-------------------------------|
--------7-----------9--10--10/11-|--11--11--11/12-----12------15--------|-----7-----10p7--------x---x-----|--x---x---x---------------------------|--7-------------8/9----10--10/11-|--11--11--11/12-12------13------13/14-|---------------------------------|--------------------------------------|---------------------------------|--------------------------------------|---------------------------------|--------------------------------------|
--14~-------14~---------|--------------14/15---|----------14/-16--14----------|------------------------|--------------x-------|----------------------16--14--|--------14~-------------|--------------14/15---|--14~-------------------------|------------------------|----------------------|------------------------------|------------------------|----------------------|------------------------------|------------------------|----------------------|------------------------------|
------------------------------|--------------------------------------|------------------------------|--------------------------------------|--16p15-14~-------14/16---16\-|--14--------------------------16------|------------------------------|------16-14-12------12--14/16-----16--|------------------------------|----------------14--------------------|------------------------------|--------------------------------------|
-------------------------------------|---------17b-17p14---14-----14------|---------------------------------15--|--17b--------------x----17------17b-|--19--16h19p16---16--16~--16\16------|-------------------x----------------|-----------------16------------------|------0-----------------------------|-------------------------------------|------------------------------------|-------------------------------------|------------------------------------|
--------------------------------|----------------------------------|--17b-17--15------15~---15--15r-|----------------------------------|--17b---------16----------------|----16\-14------14----------------|--------------------------------|------------16------14r14\12------|--------------------------------|------------------------------14--|--------------------------------|----------------------------------|
------------------------------------|-----------------------------------------|------------------------------------|-----------------------------------------|--------------14--14----------------|------16------19--16h19p16-----19p16-----|--12--14/-19----------14\12-----12/-|--16------16---------------19--------19--|----------------------------14------|-----------------------------------------|------------------------------------|-----------------------------------------|
--------------7-7----------|--7---------------------------------|------------7------10b-----|-----10--10p7p0h7h10p-7p0h7h10p-0h7h|--16\-0/-8-----------------|------------------------------------|---------------------------|------------------------------------|---------------------------|------------------------------------|---------------------------|------------------------------------|
------0h7h10-----------0h7h10----------7h|--10p0-----------0----------------|--10-----------0h7h10-----------0h7h10---|-------0h7h10--0---10--10b--------|-------------0----------------0----------|---------------------------10r-9--|-----------------------------------------|----------------------------------|-----------------------------------------|----------------------------------|-----------------------------------------|----------------------------------|
-----------------------------|-------------------------|----------------------|--10-----------------7b---7--|--9--8--9--7--9-------7b-|--9--7--9--7r---------|------9r9p7----7--9----------|-----------------9-------|--7-------------------|------------9----------------|-------------------------|----------------------|-----------------------------|-------------------------|----------------------|-----------------------------|-------------------------|----------------------|
----------------------|-----------------7-----|----------------------|--------------7-----9/-|----7-----------------|----------7h8----------|-------9--------------|-----------------------|----------7\-6--------|-----------------------|----------------------|-----------------------|
------9h11-9---------------------|----------12----------------|--11----------11p9---------------|------12------15b-----15b---|-------------------11\10-9\---4/-|--13------------------------|---------------------------------|----------------------------|---------------------------------|----------------------------|---------------------------------|----------------------------|
-----------------------|-----------------------|--7--------------------7-----|--12~---12\---0--------|--0----0--0------10b---|-----10--10r-------10-----7--|-----------------------|-----------------------|-----------------------------|-----------------------|-----------------------|-----------------------------|-----------------------|-----------------------|-----------------------------|-----------------------|-----------------------|-----------------------------|
----------10--10------------|----------------------------|--10--12--10b-10r-----------|--10--10b-12--12~-------10--|----------10b-10b-------10--|----------------------------|----------------------------|----------------------------|----------------------------|----------------------------|----------------------------|----------------------------|
--14-------------0-----7------|--7h10p7-----7------------|-----15\--3------0--------10--|---------7h9-0------------|-------------2/9-0--0---------|--------------------------|------------------------------|--------------------------|------------------------------|--------------------------|------------------------------|--------------------------|
--------10--7h9p7-----7------|--7----9b---9b---9b---|--9b---9b---9b---9r-7h9p7-|------------------10--0--10b-|----------------------|--------------------------|-----------------------------|----------------------|--------------------------|-----------------------------|----------------------|--------------------------|-----------------------------|----------------------|--------------------------|-----------------------------|----------------------|--------------------------|
-----7--9b-9~-----7h9p7----|--7--10b-----10b---10----|--9---------------------9--|-------------------------|---------------------------|-------------------------|---------------------------|-------------------------|---------------------------|-------------------------|---------------------------|-------------------------|
--7h10p7-----7--10r-----7h10p7-----|--7-------------7-----12b---|---------10--------------------10b-|-----10p7----7--7-----------|-----------------------------------|----------9b-------9--------|-----------------------------------|----------------------------|-----------------------------------|----------------------------|-----------------------------------|----------------------------|
---------12b----10------|------10--12--14--10~---10--12b-|--------------------12--|--12----------------------------|------------------------|--------------------------------|------------------------|--------------------------------|------------------------|--------------------------------|------------------------|--------------------------------|
------12r-------10h12p10----|--10----------12--14b-----14--|------12r----------------12-|----------12------------------|------12r-------------------|------13----------------------|----------------------------|------------------------------|----------------------------|------------------------------|----------------------------|------------------------------|
--12-----------------------------|-----------------------------------|------15b------------------------|------------------------0------12--|----------15r-14--12b------------|--------------12h13-13--0/-13------|----------------------14--0------|------14--12--------14-------------|--------------------------0--12\-|--11------0------------------------|---------------------------------|-----------------------------------|
-------------------------------------|----12-12------12~-12~-------12---12-|--x--------13----------12/13---------|-------------------------------------|-------------------------------------|-------------------------------------|
------------------------------------------|--------14b---------14b-|-----12----12-----12-----12-----12-----12-|--14b-------------------|--13----13-----13-----13-----13-----13----|------------------------|------------------------------------------|------------------------|------------------------------------------|------------------------|------------------------------------------|------------------------|
----14--12h14p12------0----------|----------18b----16-14------|--------0---------15b-0--15--15--|--12\-------------------17--|----------------------0----------|----------------------------|---------------------------------|----------------------------|---------------------------------|----------------------------|---------------------------------|----------------------------|
--14--------------------17b-19-19-|--19--19--19-19-19-19-19~--18-17b----|------17r---15b-----14------------|------------------------------17b-0--|----------------16----------------|-------------------------------------|----------------------------------|-------------------------------------|----------------------------------|-------------------------------------|----------------------------------|-------------------------------------|
--17b-19-19-19-19-19-19-19------------|--16r-------17b----17b-----19--|-------------------------------0--0-0-|-------0-0------0------18------|----------------------------0---------|-------------------------------|--------------------------------------|-------------------------------|--------------------------------------|-------------------------------|--------------------------------------|-------------------------------|
--19--17r---------------0-----|--21b---------------|------21b---21\-----------|------17r---15------15--0--x--|--------------------|----------------0-0----7--|----------------16---------x--|--------------------|----------------0-0/8-----|------------------------------|--------------------|--------------------------|------------------------------|--------------------|--------------------------|------------------------------|--------------------|--------------------------|
--7--10b-7-----7---------------|------------------7------7---7--|------------9-----10p7----10p7-|---------------7-----10----7----|-----------------------9b------|--9r9p7---7-9b------------------|-------------------------------|--------9-----------------------|-------------------------------|--------------------------------|-------------------------------|--------------------------------|
-----0--9h-11p9-------------|---------------------------------|--0--0-----------11--9\-----|------12--14--12-----------------|--0--0----------------------|--13--------------11/13-11~---9--|----------------------------|---------------------------------|----------------------------|---------------------------------|----------------------------|---------------------------------|
-----------7----------------|----------------------------|--------7--------10---------|----------------------------|--7h-8--------9b-----9b-9p7-|-----9--7b------------------|----------------------------|--9--------9p7--------7--7--|----------------------------|---------------9--7h9-------|----------------------------|----------------------------|
------------------------------|--------------------------------|------------7-----------------|--------------------------------|--9b-9p7----7b---------9b-9p7-|------7b---------9b-9p7---------|---------9-----9p7------------|--9p7----9p7---7--------9-9-9p7-|-------------------9p7--------|-------------9p7----------------|------------------------------|--------------------------------|
-----------------------------0----|--12--10-7----------------------|-----------------------------0-10-|-----------10\------------------|--9b-9-7-----9b-9-7-----9/11------|------------------------7-------|---------9-7--------9-7-----------|---------------0-----7----------|----------------------------------|------------------9--------9/11-|----------------------------------|--------------------------------|
---------------------------------|----------------------------------|---------------------------------|----------------------------------|-----9----------9h11p9\7h9p7-----|--7p0-------7---------------------|--9-----17--11----------------9--|------7h9p7----7--7---------------|---------------------------------|--------------------9p7h8p7-------|---------------------------------|----------------------------10b7--|
-----------------------------|--------------------------0-----|-----------------------------|-----7h10p7---------------0-----|---------------------------7h|--8---------9r-9p7---7~---0/-4/-|--6h7p6--6------------7h9----|-------------------9------------|---------7--------7/9--------|--------------------------------|-------------5h7-------------|--------------------------------|
-----------------------------------|------------0----------------|------10---------10----------------|--------3--------------------|--11-----11--11------11\7----7-----|--2/4---------4\2p0---2--0---|--------------------------9-----9\-|--------------------2--------|-----------------------------------|-----------------------------|-----------------------------------|-----------------------------|
-------------------------------|------------------------------|--3/-14----14b-14b---14p12-----|--12----12~-12~---12~-12--12--|---------------------------13--|------------------------------|-------------------------------|------------------------------|-------------------------------|------------------------------|-------------------------------|------------------------------|
--14b-----------14b-----------|--14b-------14r-------------|--------12--12--------12--12--|--------12----------12--12--|------------------------------|----------------------------|------------------------------|----------------------------|------------------------------|----------------------------|------------------------------|----------------------------|
--14r---14r-------14r---|------12h14p12------------|------------------------|----------------14r-------|------------------------|--------------------------|------------------------|--------------------------|------------------------|--------------------------|------------------------|--------------------------|
--------------------------------|--------------------------|--14r---12--14------------------|--12--14--14r-------14r---|----------------13~---13--12h13-|--------------------------|--------------------------------|--------------------------|--------------------------------|--------------------------|--------------------------------|--------------------------|
------------14b---14--12h14p12\10--|--12p10-----10--12b---12--10------|--12----12-------------------------|--------12--------------------12b-|-----------------------------------|----------------------------------|-----------------------------------|----------------------------------|-----------------------------------|----------------------------------|-----------------------------------|----------------------------------|
----12b------------------------|----------------------------|--------12r-10-------------10b-|----------------------------|----------------11--10p-9------|--10r-9--7------------------|-------------------------------|------------9p7-------------|-------------------------------|----------------9--8p-7\-6--|-------------------------------|----------------------------|
---------------------------|---------------------------------------------------|---------------------------|---------------------------------------------------|---------------------------|--7h8p7h8p7h8p7h8p7h8p7h8----8p7h8p7h8p7h8p7h8-----|--9----7-------------------|---------------------------------------------------|----------7h-8p7-----------|---------------------------------------------------|-----------------10--7--7--|--------------------------7----------------------7-|
----------------------------|-------------------------------|----10----------------------|-----10--10--10p7-10p7---------|--------9b-9r--9p7----------|------------------------9b--9r-|-------------------9--9~-9p-|--7----------------------------|----------------------------|-------------------------------|----------------------------|-------------------------------|
-----------------------------|--------------------------|-----------------------------|--------------------------|--9p7----7b------------------|--------------------9--9--|------9-----9~-------9--7\---|--9------9--7~---7--9--9--|-----------------------------|--------------------------|-----------------10b------11-|-----10b------------------|
-----------------------------|---------------------------|-----10--10------------------|-----------------10--------|-------------9r-9p7----7b----|---------------------9b-9r-|--------------------9-----9--|--9--7--9--9--7------------|--7--------------------------|---------------------------|-----------------------------|---------------------------|
-----------------------------|--------------------------|-----------------------------|--------------------------|--9p7----7/9-7~--------------|----------------9-9-------|------9-----------7h9-7------|--------9--7~---7-7-9-----|-------------------------9p7-|--7\-6-----------------8/-|-----------------------------|--------------------------|
---------------------------|-------------0---------------0-|---------------------------|-------------0---------------0-|-------9---9-9--9--9-9-9-x-|-------------------------------|-------------8--9--8-8-8-x-|--9----11--9---9h11-9--11--9---|--9----------9-----9-9-9-x-|--7----7---7---7----7------7---|---------------------------|-------------------------------|
-----------------------------|----------------------------|-----------------------------|----------------------------|-----------------------------|-----7h8-7----------------x-|---------7--------7----------|------------9--7------7---x-|------------8h9------8p7-----|----------------------------|--7/-11------------------10b-|--7---------------9-9-------|
-------------------------|-------------------------|-------------------------|--------7----7-----7-----|--9---9------------------|-------------------------|--7h8---8----8-----8--7--|--8---8------8-----8-----|--8----------8-----8-----|--7-----7----7-----7--6--|--7---7------7-----7-----|--7----------7-----7--7--|-------------------------|-------------------------|----------------------x--|----------------7--------|--------7-------7-----7--|-------7--7-----7-----7--|
--------------------------|--------------------------|--------------------------|--------------------7--7--|--8--------7b-----------8-|--8-----8-----8-----8--8--|--7--7--9-------7--9p-7---|--7-----7-----7-----9--9--|--------------------------|--x-----------------x--x--|--------------------------|--7--7-----7-----7--7--7--|
----------------------------|--------------------------|--7-------------------------|--------------------------|--8--9b-9b-9r-9p7----7b-----|--------8-----8-----8-----|--9---------------9-----9p7-|--9--9--7-----7-----7-----|--x-------------------------|--x--x--------------------|--7-------------------------|--7--7-----7-----7-----7--|
------------------------------------|-------------------------|--10--10--10p7-10--10p7-7-----------|-------------------------|--x------------------------9r9p7----|-------8-----8-----8--8--|--7------------------------------9--|-------7-----7-----7--7--|------------------------------------|-------------------------|------------------------------------|--7-------7-----7--------|
---------------------------------|---------------------------|-----10b-10b-10r10p7-------------|---------------------------|----------------------6--9r9p7---|--------8-----8------7--9--|--7----------------------------9h|--7-----7-----7--7h9-------|--x------------------------------|--x------------------------|--7------------------------------|--7--7-----7---------------|
------------------------------|--------------------------|------------------------------|--------------------------|--9b-9b-9r9p7----9--7---------|-----------7--9--7b-------|--------------9--------9p7-7--|-----7--9-----------9--7--|------------------------------|--------------------------|------------------------------|--7-----------------------|
---------------------------------|----------------------------------|------10-------------------------|-----10-10-10-10-10---------------|----------9r9p7---9-9--7b--------|--7--x--x--x--x--x---9b-9p7-9--9--|--9h7-----------9---------9p7-7--|-----7--7--7--7--7----------9-----|---------------------------------|----------------------------------|---------------------------------|----------------------------------|
Tap to rate this tab
 
# A B C D E F G H I J K L M N O P Q R S T U V W X Y Z