Jimi Hendrix - Pali Gap tab

Pali Gap by Jimi Hendrix

bassline:||--------------------------||||-------------0------------||||-------0-2-2---2--0h2-0---||||-0--3-------------------3-||
guitar (w/univibe)
2x-||/17--/17--/17--/17||------19\\\\\\\---------|-||/17--/17--/17--/17||------19\\\\\\\gliss.---|-||------------------||------19\\\\\\\---------|-||------------------||------------------------|-||------------------||------------------------|-||------------------||------------------------|
------------------7-----------------------|----------------7---10p7------------------|---9(11)---9(11)---------9(11)-9-7(8)-----|-9------------------------------------9~--|------------------------------------------|------------------------------------------|
--------------------------------------------7----------|-------------------------------------------------------|----------7-9(11)---7~-------7-9(11)-9(11)~---(11)9p7--|------7-9---------9----------------------------------9-|---/9--------------------------------------------------|-------------------------------------------------------|
---------------------------------------------|-----------------7-10(12)-10p7---------------|----7----7-9(11)---------------9--7(8)-------|-/9----9-------------------------------9/12\-|---------------------------------------------|---------------------------------------------|
------7-------7-------7------------------------|-7h10----7h10----7h10----7h10------------------|------------------------------9(11)9p7---9(11)-|---------------------------------------9-------|-----------------------------------------------|-----------------------------------------------|
--------7-10-10(12)-10-7------------------------|---7-10------------------10-7-------------------|-9----------------------------9(10)-7-----------|--------------------------------------9-7-------|------------------------------------------9-8-7-|------------------------------------------------|
-12(14)(14)(14)(14)(14)(14)12(14)12p1012(14)12p10---------------------------------------------------|--------------------------------------------------|--------------------------------------------------|--------------------------------------------------|--------------------------------------------------|
-12/14-14-14-14-14-/17-17-17-17-17-17-/19-19-19-19-19-19-|---------------------------------------------------------|---------------------------------------------------------|---------------------------------------------------------|---------------------------------------------------------|---------------------------------------------------------|
-17h19p17-----------------------------------------------|----------19-17-15-12-10(12)-7--------------------------|-------------------------------9-7-------7-9-9(11)-9----|-----------------------------------9---9----------------|--------------------------------------------------------|--------------------------------------------------------|
--------------------------------------------------------------------|----------------------------------7-10(12)~-10p7--------------------|--------------------------7-9(11)----------------9p7-9(11)-9(11)-9~-|-7h9-7----------------7h9-------------------------------------------|-------9-8-7--7~-10~------------------------------------------------|--------------------------------------------------------------------|
--------------------------------------------------------|-10(12)-10(12)-10(12)-10(12)-10(12)~-10~-12(14)-10p7----|-----------------------------------------------------9~-|--------------------------------------------------------|--------------------------------------------------------|--------------------------------------------------------|
--------------------------------------------------------|-10(12)-10(12)-10(12)-10(12)-10(12)~-10-12(14)-7-10p7---|-----------------------------------------------------9~-|--------------------------------------------------------|--------------------------------------------------------|--------------------------------------------------------|
-12(14)(14)(14)12p10-------------------------------7----|---------------------12-12(14)~-12-10-7--------7-10-10--|----------------------------------------9~---9----------|--------------------------------------------------------|--------------------------------------------------------|--------------------------------------------------------|
-10(12)10-10(12)10-7------------------------------------|--------------------10(12)-10------------------10-10~---|------------------------------9p7------9-10-11----------|----------------------------------9-12------------------|--------------------------------------------------------|--------------------------------------------------------|
--17-------17------17------------------17------17----17----|-17(19)--(19)17--17(19)--15-17-15-----17(19)-(19)17-17(19)-|----------------------------------16-----------------------|-----------------------------------------------------------|-----------------------------------------------------------|-----------------------------------------------------------|
----------------------------------17----------17----------|-17p15----15-17-17(19)-17(19)~--17(19)--17(19)---17(19)17-|-------16-------------------------------------------------|----------------------------------------------------------|----------------------------------------------------------|----------------------------------------------------------|
---------------------------------------------------------------|-15-17(19)-(20)17----15-17(19)----15-(19)17-15----15-17(19)17~-|------------------16-----------16--------------16--------------|---------------------------------------------------------------|---------------------------------------------------------------|---------------------------------------------------------------|
--------------------------------------------------------------|-------15-17(19)-(19)~-17p15---15-17(19)-17-17-17-17-17-17-17-|-16-16----------------------16--------------------------------|--------------------------------------------------------------|--------------------------------------------------------------|--------------------------------------------------------------|
--------------------------------------------------------------|-17-17(19)17p15-15-15-15-15-15-15(16)-15-15-12-12-12-12-12-12-|--------------------------------------------------------------|--------------------------------------------------------------|--------------------------------------------------------------|--------------------------------------------------------------|
---------------------------------------------------------|-10-10-10-10-10~-10--10-10-10-7--------------------------|--------------------------------9-9-9-9--7-7-7-7-6-6-6-6-|---------------------------------------------------------|---------------------------------------------------------|---------------------------------------------------------|
---------------------------------------------------------------------|-----------------9(10)-(10)-(10)---------------9(10)9-7-9------------|-----------------9(10)-(10)-(10)-7-----------7-9(10)9-7-9-7----------|-7---7-9~--7-9-9-------------------9----7-/9----------------9~-7p5---|---9---------------------------------/9----------------------------7-|---------------------------------------------------------------------|
----------------------------------------------------/17-17-17-17-17-17-17\-|-15-15-15\14-14-14/17-17-17\14-14-14/15-15-17-17-17------------------------|----------------------------------------------------/14-14-14-14-14-14-14\-|-12-12-12\11-11-11/14-14-14\11-11-11/12-12-14-14-14------------------------|---------------------------------------------------------------------------|---------------------------------------------------------------------------|
-/13\--/17\-----19\\\\\\\\------------------------------|----------------19\\\\\\\\-gliss.-----------------------|-/10\--/14\-----19\\\\\\\\------------------------------|--------------------------------------------------------|--------------------------------------------------------|--------------------------------------------------------|
-------------------------------------------------------------------------------------|-7---------7-----------10(12)~--(12)10-7-----7-----7---------------------------------|-9(11)-9-7-9(11)-9(11)-------------------9-7-9(11)-9(11)-----------------------------|-------------------------------------------------------------------------------------|-------------------------------------------------------------------------------------|-------------------------------------------------------------------------------------|
------------------------------------------------------------|-10-----10-----14-----14-----14-----14-----17-14-----14-----|-12(14)-12(14)-16(18)-16(18)-16(18)-16(18)----16(18)-16(18)-|------------------------------------------------------------|------------------------------------------------------------|------------------------------------------------------------|
----------------------------------------------------7-----|-12-----12-----10------7--------------10----10(12)-10(12)-|-14(16)-14(16)-12(14)--9(11)-7-12(14)-12(14)--------------|----------------------------------------------------------|----------------------------------------------------------|----------------------------------------------------------|
12x---------14-13-12----||-12h14p12----||-/19\\\\-/17\\\\------|-10(12)-----------15-||----------15-||----------------------|---------------------||-------------||----------------------|---------------------||-------------||----------------------|---------------------||-------------||----------------------|---------------------||-------------||----------------------|
-----------------------------------7-------7---------------|-10(12)-7-------------------------7-------7-10p7-----------|----------9p7---7(8)---------9(11)---9(11)------9(11)9p7---|--------------9------9----7h9----------------------------9-|-----------------------7h9---------------------------------|-----------------------------------------------------------|
4x-12-12-12-12-12-12-12-12-12-12-12-12-||-12p10--||--------------|-------------------------------------||------12||-/12-12-12-12-|-------------------------------------||--------||--------------|-------------------------------------||--------||--------------|-------------------------------------||--------||--------------|-------------------------------------||--------||--------------|
4x-||--------||---10-12-12p10----10----10-------------10-------|-||12p10---||--10-----------12----12-------12-12-10----12-10-|-||------11||-11------------------------11-------------------|-||--------||------------------------------------------------|-||--------||------------------------------------------------|-||--------||------------------------------------------------|
4x 4x-||------7-||-------------||-------7------||-----------------------|-||-----7--||------7-10p7-||------7-10(12)||-----------------------|-||9(11)---||-9(11)-------||-9(11)--------||-9-7-------------------|-||--------||-------------||--------------||-----9-7---------------|-||--------||-------------||--------------||---------7-9-9-7-5-----|-||--------||-------------||--------------||-------------------7-7-|
-----------------------------------------------------------|-7-----------------------7-6-7--9-7-------------9(10)------|-7-----------------------7-6-7--9-7--9(11)9p7---9(10)-7----|---9--7-------5-5-5-5-7-----------------------9---------9--|--------9-8-7----------------------------------------------|-----------------------------------------------------------|
---------------------------------3---2--|-9(10)-9(10)-9(10)---------------3---3--|-9(10)-9(10)-9(10)-7-----------4-----4--|---------------------9-7-----5----------|-------------------------9-7------------|----------------------------------------|
Outro Chords(w/bar):-7~~~---10~~~~---14~~~~-|-7~~~---10~~~~---14~~~~-|-7~~~---10~~~~---14~~~~-|-6~~~----9~~~~---12~~~~-|-7~~~---10~~~~---14~~~~-|------------------------|
Outro:-----------------------------------------------------------|---------7-10-/14-14\10-10-/14-14\7-7/10-10\5-5/10-10-5-5--|-----7h9---------------------------------------------------|-7h9-------------------------------------------------------|-----------------------------------------------------------|-----------------------------------------------------------|
-----------------------------------------------|-/10-10\3-3-/10\5/12-10h12p10-7------7-10(12)~-|--------------------------------9(11)----------|-----------------------------------------------|-----------------------------------------------|-----------------------------------------------|
3x||-/19-19-19-19-19-17-14-------------||||-----------------------17p15-17----||||--------------------------------16-||||-----------------------------------||||-----------------------------------||||-----------------------------------||
------------------------------------------------|---------7-10-10(12)-10(12)10-7-----------------|-----7-9------------------------9-7-------------|-7h9--------------------------------9-7---------|----------------------------------------9-7-5---|----------------------------------------------7-|
--------------------------------------------------|-------------------------------10--12p10----------|------------------------7h9/11-----------11\9-7---|-----7h9-7h9~-------7h9-------------------------9-|-7h9------------7h9-------------------------------|--------------------------------------------------|
-10p7-10p7----------------------------------------------|-----------7-10(12)-10p7-10p7------------7--------------|------------------------------9(11)-9(11)-(11)9p7---7---|--------------------------------------------------9-----|--------------------------------------------------------|--------------------------------------------------------|
-10p7-10p7-10p7-10p7-10p7-10p7-10p7-10p7-10p7-----------|--------------------------------------------------------|--------------------------------------------------------|--------------------------------------------------------|--------------------------------------------------------|--------------------------------------------------------|
-12-12-12-14-14-14-14-12(14)-10-7-----------------------|----------------------------------10-7------------------|---------------------------------------9-7---7----------|-------------------------------------------9---9--------|--------------------------------------------------------|--------------------------------------------------------|
dive with bar--------------------10----10-------------------------------|-0-\\\\/////0--10(12)--10(12)-----------------7------------|-----------------------------9(11)9p7----9(11)-(11)9p7-----|--------------------------------------9-----------------9--|-----------------------------------------------------------|-----------------------------------------------------------|
--------------------------------------------------------|------7--------------7---------------7------------------|-9(11)-(11)9p7--9(11)-(11)9p7---9(11)-(11)9p7-----------|--------------9--------------9----------------9---------|--------------------------------------------------------|--------------------------------------------------------|
------------------------------10~~~-|-7-----7-----7-----7----------10~~~-|-9(11)-9(11)-9(11)-9(11)9p7---10~~~-|---------------------------9--------|------------------------------------|------------------------------------|
repeat outro chords 4x
Tap to rate this tab
 
# A B C D E F G H I J K L M N O P Q R S T U V W X Y Z