Power Of Soul tab with lyrics by Jimi Hendrix - Easy chords and tabs for guitar

Jimi Hendrix – Power Of Soul tab

This is the live version of Power Of Soul.
Artist: Jimi Hendrix
Tuning: 1/2 Step Down

Intro:-7-----------7----------------------------7--------------|-7---------7---10(12)~-10p7-----------------10-7---------|-8---9(11)------------------10(12)10~-(12)-------9-7-----|-9---------------------------------------------------9-7-|-9-----------------------------------------------------7-|-7-------------------------------------------------------|
---------7--10(12)-10-7-10-7~--7---------------------|-------7-------------------------10-7----------------|-9(11)--------------------------------9(11)9-7-7---7-|-------------------------------------------------9---|-----------------------------------------------------|-----------------------------------------------------|
wa-wa/distortion------------------------------------------7---10(12)-10-7------|-10(12)~~10-----------------------------7---7-------------7----|------------9(11)-7~-9(11)~~--9p7-9(11)------------------------|---------------------------------------------------------------|---------------------------------------------------------------|---------------------------------------------------------------|
-10(11)-7h9p7---7-----------------------------------------------|--------------9---10-10-10(12)~~--------10--------------------9-|---------------------------------9(11)9----(11)9--7-------/10---|----------------------------------------------------9-7-9-------|----------------------------------------------------------------|----------------------------------------------------------------|
wa-wa off-12(14)-12~--9-----------14(16)-14-12----------------------------|---------------12-9-------------------14-12--12------------------|------------------------------------------------12(13)-----------|-------------------------------------------------------14-12-----|-------------------------------------------------------------14--|-----------------------------------------------------------------|
---------------------------------12-14-12------------------------------|-----------------------------12-----------15----------12---------------|-------------------------/13-12--------------14(16)14----12------------|----------12~~----------------------------------------------14-12~~----|-12\11-12-------6/14-12---------------------------------------------13-|-----------------------------------------------------------------------|
16x---------------------5-||-----||------------------------------------------|-------------------5---||8(10)||-8~~(10)~8~-8(10)-8(10)-8(11)-8(11)-8(12)-|--------------7(9)-----||-----||------------------------------------------|-----5-----5-----------||-----||------------------------------------------|--------7--------------||-----||------------------------------------------|-/7--------------------||-----||------------------------------------------|
-------------------------------------|-8(12)-8(11)-8(11)-8(10)-8(10)-8(10)-|-------------------------------------|-------------------------------------|-------------------------------------|-------------------------------------|
4X-----------------------------||-----|-----------------------------||-----|-------9-9-7-----7---7-9-9-7-||-9~--|-----7-9-9-7---7-7-9-7-9-9-7-||-8~--|-7h9---------9-----9---------||-----|-----------------------------||-8~--|
4x-------------------------------|----------------------------7~-|--------9-9-7---7-7---7-9-9-7~-|------7-9-9-7-9-7-7-9-7-9-9----|-7h9----------9-----9----------|-------------------------------|
2x-----------------------0---|-----------------------0---|-----------------------4---|-----------------------3---|-----2-4-2---2-------4-4---|-2-4-------4---4-2-0-------|
4x------0-0-0---0-0-----0-0-------|--------------------------------|-4--4-7-7-6-4-6-6-4---7-6-4-----|-4h6----------------6-------6---|--------------------------------|----------------------------0---|
4x---------------------------|-----------------------7-5-|---5---5---5-----------7-5-|---5---5-9-5-7---5-----7-5-|-7---7-------7-6-5---------|-------------------8-5-----|
Verse:
B B/E E E6-7---7-----------|-7---9-----------|-8---9-----------|-9---9----9---11-|-9---7----7---7--|-7---7-----------|
figure a:2x||----------------------------||||----------------------------||||----------------------------||||-----7---9-7----------------||||-7/9---9-----9-5---7-5------||||-----------------------7-7\-||
B7 E/B B E/B B7 Shoot down some of those airplanes you been drivin' E/B B E/B especially the ones that'll fly you too low (Figure a)2x
------------------------------------|--10--------------------------------|-------9(11)9p7--9---7h9------------|---------------------------7(8)-9~--|-Shoot down some of those airplanes-------------------------------------
E/B B E/B 'specially the ones that fly you too low (Figure a)2x E5 E6 E5 E6 Come on back down to earth my friend E5 E6 come on back up with me
----------------------|----------------------|----------------------|----------------------|-7-5-4-5-4-5-4-5-4-5--|----------------------|
E5 E6 E5 E6 We all been through the night time baby F F# G G# A darling sweet caress of reality
E F F# G G# A-----------------------------------------------|-----------------------------------------------|-9-9-9-10-10-10-11-11-11-12-12-12-13-13-13-14\-|-----------------------------------------------|-7-7-7--8--8--8--9--9--9-10-10-10-11-11-11-12\-|-----------------------------------------------|
Chorus: Jimi plays melody on guitar in B
------------------------------------------------------|------------------------7-10(12)----------------------|------------9(11)9p7----------------------9(11)9p7----|--7h9-7--9-----------9-----------9-9-7--7-------------|------------------------------------------------------|------------------------------------------------------|
with the power of soul anything is possible with the power of soul anything is possible with the power of soul anything is possible with the power of soul anything is possible (sometimes they alternate "power of you, anything you wanna do")
Solo:w/octavia---------------------------------------------------------------|------------------------5---------5/10-01-10-10~~10~10~10~10~--|-----------------7(9)~~---5-5-5~~------------------------------|-5-5-5-5-5-5-5-5-----------------------------------------------|---------------------------------------------------------------|---------------------------------------------------------------|
----------------------------------------15(17)~~-15(17)-15(17)-15(17)-|-10-13-10-13-10h13~-15-15-15-15(17)~-13-------------------------------|----------------------------------------------------------------------|----------------------------------------------------------------------|----------------------------------------------------------------------|----------------------------------------------------------------------|
-15(17)-------------------------15(17)~15-15--12-15-12h15p12----12--------|--------15(17)~(17)-13-15-13---------------------------------15----15(17)-|-----------------------------14-------------------------------------------|--------------------------------------------------------------------------|--------------------------------------------------------------------------|--------------------------------------------------------------------------|
-15(17)-15(17)15----------------------------------------------------|-----------------15(17)15p13-15-13-------13-15-15(17)-13-15-13(15)~-|-----------------------------------14-14----------------------------|--------------------------------------------------------------------|--------------------------------------------------------------------|--------------------------------------------------------------------|
---------------------------------------------------------------|-13-13~-12-12~--13(15)~13-13h15p13-15(17)(17)15-13-13~-13(15)~-|---------------------------------------------------------------|---------------------------------------------------------------|---------------------------------------------------------------|---------------------------------------------------------------|
----------------------------------------------------------------|----------------------------------------------------------------|-12h14-12h14-12h14-------12(13)----14-12(13)--------------------|-------------------12h14--------14-----------14-13-12-10-12(14)-|----------------------------------------------------------------|----------------------------------------------------------------|
-------------------------|-------------------------|-------------------------|-10----------------------|----12-12-------10-12-10-|----------10h12----------|
jellyfish bridge:
Am7 with these riffs:---------------------|---------------------|-5------5--7/9--7--5-|-5------5--7/9--7--5-|-0---0---------------|---------------------|
"even a jellyfish will agree to that"-----------------------------------------------------------|-----------------------------8-----8----8----8-----8-5---5-|--7-5(6)----5----------------7(9)--7(9)-7(9)-7(9)--7-5-7-5-|---------7--5------------------------------------------7---|---------------7-6-5---------------------------------------|---------------------8(9)-5--------------------------------|
flying so much with one toy babe it's an escape to a far away land It's so groovy to float around sometimes even a jellyfish will tell you that It's so groovy to float around even a jellyfish will agree to that yeah but old jellyfish been floating so long an so slack floating everyday and every night ridin' high even if there's a risk sometimes the wind ain't right
crescendo back to figure a:----------------------------------------------------------------------|----------------------------------------------------------------------|----------------------------------------------------------9-7---------|-----5---5-9-5----6---6-10-6----7---7-11-7----------------9-7-------7-|-5h7---7-------/8-8-8--------/9---9--------9-8-7--------------7h9-9---|-------------------------------------------------10(12)-7-------------|
chorus (figure a)4x
Please rate this tab:
x1.0