Jimmy Eat World – Your House tab

Artist: Jimmy Eat World
Song: Your House 2007
Album: Bleed American (Deluxe Edition)
Tabbed by: Kmilongo (kmilo1989@gmail.com)

I tabbed this with the help of a live video.
The tuning for this song is Open Dsus4 (DAGDAD)

Intro

D||----------------------------------|----------------------------------|A||--------0-------0-------0-------0-|--------0-------0-------0-------0-|G||------2-------2-------2-------2---|------2-------2-------2-------2---|D||----2-------2-------2-------2-----|----2-------2-------2-------2-----|A||--0-------0-------0-------0-------|--0-------0-------0-------0-------|D||----------------------------------|----------------------------------|
Verse
D||----------------------------------|----------------------------------|A||--------0-------0-------0-------0-|--------0-------0-------0-------0-|G||------2-------2-------2-------2---|------2-------2-------2-------2---|D||----2-------2-------2-------2-----|----2-------2-------2-------2-----|A||--0-------0-------0-------0-------|--0-------0-------0-------0-------|D||----------------------------------|----------------------------------|
"When you're on..."
----------------------------------|----------------------------------|----------------------------------|----------------------------------|--------2-------2-------1-------1-|--------2-------2-------2-------2-|------0-------0-------0-------0---|------0-------0-------0-------0---|----4-------4-------0-------0-----|----4-------4-------4-------4-----|--4-------4-------2-------2-------|--0-------0-------0-------0-------|
"Ohhh..." "You rip my heart
----------------------------------|----------------------------------|--------0-------0-------0-------0-|--------0-------0-------0-------0-|------2-------2-------2-------2---|------2-------2-------2-------2---|----2-------2-------2-------2-----|----2-------2-------2-------2-----|--0-------0-------0-------0-------|--0-------0-------0-------0-------|----------------------------------|----------------------------------|
right out" "I feel the whole
----------------------------------|----------------------------------|--------0-------0-------0-------0-|--------0-------0-------0-------0-|------2-------2-------2-------2---|------2-------2-------2-------2---|----2-------2-------2-------2-----|----2-------2-------2-------2-----|--0-------0-------0-------0-------|--0-------0-------0-------0-------|----------------------------------|----------------------------------|
room..."
----------------------------------|----------------------------------|----------------------------------|----------------------------------|--------2-------2-------1-------1-|--------2-------2-------2-------2-|------0-------0-------0-------0---|------0-------0-------0-------0---|----4-------4-------0-------0-----|----4-------4-------4-------4-----|--4-------4-------2-------2-------|--0-------0-------0-------0-------|
----------------------------------|----------------------------------|--------0-------0-------0-------0-|--------0-------0-------0-------0-|------2-------2-------2-------2---|------2-------2-------2-------2---|----2-------2-------2-------2-----|----2-------2-------2-------2-----|--0-------0-------0-------0-------|--0-------0-------0-------0-------|----------------------------------|----------------------------------|
Chorus
D||----------------------------------|----------------------------------|A||----------------------------------|----------------------------------|G||--------2-------2-------2-------2-|--------2-------2-------2-------2-|D||------0-------0-------0-------0---|------0-------0-------0-------0---|A||----4-------4-------4-------4-----|----4-------4-------4-------4-----|D||--4-------4-------4-------4-------|--0-------0-------0-------0-------|
"...still care at all"
----------------------------------|----------------------------------|--------0-------0-------0-------0-|--------0-------0-------0-------0-|------4-------4-------4-------4---|------1-------1-------1-------1---|----2-------2-------2-------2-----|----2-------2-------2-------2-----|--0-------0-------0-------0-------|----------------------------------|----------------------------------|--2-------2-------2-------2-------|
"Don't go, tell me now"
----------------------------------|----------------------------------|----------------------------------|----------------------------------|--------2-------2-------2-------2-|--------2-------2-------2-------2-|------0-------0-------0-------0---|------0-------0-------0-------0---|----4-------4-------4-------4-----|----4-------4-------4-------4-----|--4-------4-------4-------4-------|--0-------0-------0-------0-------|
After Chorus
D||----------------------------------|----------------------------------|A||--------0-------0-------0-------0-|--------0-------0-------0-------0-|G||------2-------2-------2-------2---|------2-------2-------2-------2---|D||----2-------2-------2-------2-----|----2-------2-------2-------2-----|A||--0-------0-------0-------0-------|--0-------0-------0-------0-------|D||----------------------------------|----------------------------------|
----------------------------------|----------------------------------|--------0-------0-------0-------0-|--------0-------0-------0-------0-|------1-------1-------1-------1---|------1-------1-------1-------1---|----2-------2-------2-------2-----|----2-------2-------2-------2-----|----------------------------------|----------------------------------|--2-------2-------2-------2-------|--2-------2-------2-------2-------|
Verse
D||----------------------------------|----------------------------------|A||--------0-------0-------0-------0-|--------0-------0-------0-------0-|G||------2-------2-------2-------2---|------2-------2-------2-------2---|D||----2-------2-------2-------2-----|----2-------2-------2-------2-----|A||--0-------0-------0-------0-------|--0-------0-------0-------0-------|D||----------------------------------|----------------------------------|
----------------------------------|----------------------------------|----------------------------------|----------------------------------|--------2-------2-------1-------1-|--------2-------2-------2-------2-|------0-------0-------0-------0---|------0-------0-------0-------0---|----4-------4-------0-------0-----|----4-------4-------4-------4-----|--4-------4-------2-------2-------|--0-------0-------0-------0-------|
----------------------------------|----------------------------------|--------0-------0-------0-------0-|--------0-------0-------0-------0-|------2-------2-------2-------2---|------2-------2-------2-------2---|----2-------2-------2-------2-----|----2-------2-------2-------2-----|--0-------0-------0-------0-------|--0-------0-------0-------0-------|----------------------------------|----------------------------------|
----------------------------------|----------------------------------|--------0-------0-------0-------0-|----------------------------------|------2-------2-------2-------2---|--------2-------2-------1-------1-|----2-------2-------2-------2-----|------0-------0-------0-------0---|--0-------0-------0-------0-------|----4-------4-------0-------0-----|----------------------------------|--4-------4-------2-------2-------|
----------------------------------|----------------------------------|----------------------------------|--------0-------0-------0-------0-|--------2-------2-------2-------2-|------2-------2-------2-------2---|------0-------0-------0-------0---|----2-------2-------2-------2-----|----4-------4-------4-------4-----|--0-------0-------0-------0-------|--0-------0-------0-------0-------|----------------------------------|
----------------------------------|--------0-------0-------0-------0-|------2-------2-------2-------2---|----2-------2-------2-------2-----|--0-------0-------0-------0-------|----------------------------------|
Chorus
D||----------------------------------|----------------------------------|A||----------------------------------|----------------------------------|G||--------2-------2-------2-------2-|--------2-------2-------2-------2-|D||------0-------0-------0-------0---|------0-------0-------0-------0---|A||----4-------4-------4-------4-----|----4-------4-------4-------4-----|D||--4-------4-------4-------4-------|--0-------0-------0-------0-------|
----------------------------------|----------------------------------|--------0-------0-------0-------0-|--------0-------0-------0-------0-|------4-------4-------4-------4---|------1-------1-------1-------1---|----2-------2-------2-------2-----|----2-------2-------2-------2-----|--0-------0-------0-------0-------|----------------------------------|----------------------------------|--2-------2-------2-------2-------|
----------------------------------|----------------------------------|----------------------------------|----------------------------------|--------2-------2-------2-------2-|--------2-------2-------2-------2-|------0-------0-------0-------0---|------0-------0-------0-------0---|----4-------4-------4-------4-----|----4-------4-------4-------4-----|--4-------4-------4-------4-------|--0-------0-------0-------0-------|
----------------------------------|----------------------------------|--------0-------0-------0-------0-|--------0-------0-------0-------0-|------4-------4-------4-------4---|------1-------1-------1-------1---|----2-------2-------2-------2-----|----2-------2-------2-------2-----|--0-------0-------0-------0-------|----------------------------------|----------------------------------|--2-------2-------2-------2-------|
----------------------------------|----------------------------------|----------------------------------|----------------------------------|--------2-------2-------2-------2-|--------2-------2-------2-------2-|------0-------0-------0-------0---|------0-------0-------0-------0---|----4-------4-------4-------4-----|----4-------4-------4-------4-----|--4-------4-------4-------4-------|--0-------0-------0-------0-------|
----------------------------------|----------------------------------|--------0-------0-------0-------0-|--------0-------0-------0-------0-|------4-------4-------4-------4---|------1-------1-------1-------1---|----2-------2-------2-------2-----|----2-------2-------2-------2-----|--0-------0-------0-------0-------|----------------------------------|----------------------------------|--2-------2-------2-------2-------|
----------------------------------|----------------------------------|----------------------------------|----------------------------------|--------2-------2-------2-------2-|--------2-------2-------2-------2-|------0-------0-------0-------0---|------0-------0-------0-------0---|----4-------4-------4-------4-----|----4-------4-------4-------4-----|--4-------4-------4-------4-------|--0-------0-------0-------0-------|
Bridge (not sure about the first part... feel free to correct!)
D||--0--0-0--0--0-0--0-0-0-0-0-0-|--0--0-0--0--0-0--0-0-0-0-0-0-|A||--0--0-0--0--0-0--0-0-0-0-0-0-|--0--0-0--0--0-0--0-0-0-0-0-0-|G||--2--2-2--2--2-2--2-2-2-2-2-2-|--2--2-2--2--2-2--2-2-2-2-2-2-|D||--0--0-0--0--0-0--0-0-0-0-0-0-|--0--0-0--0--0-0--0-0-0-0-0-0-|A||--4--4-4--4--4-4--4-4-4-4-4-4-|--4--4-4--4--4-4--4-4-4-4-4-4-|D||--4--4-4--4--4-4--4-4-4-4-4-4-|--0--0-0--0--0-0--0-0-0-0-0-0-|
--0--0-0--0--0-0--0-0-0-0-0-0-|--0--0-0--0--0-0--0-0-0-0-0-0-|--0--0-0--0--0-0--0-0-0-0-0-0-|--0--0-0--0--0-0--0-0-0-0-0-0-|--2--2-2--2--2-2--2-2-2-2-2-2-|--2--2-2--2--2-2--2-2-2-2-2-2-|--2--2-2--2--2-2--2-2-2-2-2-2-|--0--0-0--0--0-0--0-0-0-0-0-0-|--0--0-0--0--0-0--0-0-0-0-0-0-|--4--4-4--4--4-4--4-4-4-4-4-4-|------------------------------|--0--0-0--0--0-0--0-0-0-0-0-0-|
--0--0-0--0--0-0--0-0-0-0-0-0-|--0--0-0--0--0-0--0-0-0-0-0-0-|--0--0-0--0--0-0--0-0-0-0-0-0-|--0--0-0--0--0-0--0-0-0-0-0-0-|--2--2-2--2--2-2--2-2-2-2-2-2-|--2--2-2--2--2-2--2-2-2-2-2-2-|--0--0-0--0--0-0--0-0-0-0-0-0-|--0--0-0--0--0-0--0-0-0-0-0-0-|--4--4-4--4--4-4--4-4-4-4-4-4-|--4--4-4--4--4-4--4-4-4-4-4-4-|--4--4-4--4--4-4--4-4-4-4-4-4-|--0--0-0--0--0-0--0-0-0-0-0-0-|
--0--0-0--0--0-0--0-0-0-0-0-0-|--0--0-0--0--0-0--0-0-0-0-0-0-|--0--0-0--0--0-0--0-0-0-0-0-0-|--0--0-0--0--0-0--0-0-0-0-0-0-|--2--2-2--2--2-2--2-2-2-2-2-2-|--2--2-2--2--2-2--2-2-2-2-2-2-|--2--2-2--2--2-2--2-2-2-2-2-2-|--0--0-0--0--0-0--0-0-0-0-0-0-|--0--0-0--0--0-0--0-0-0-0-0-0-|--4--4-4--4--4-4--4-4-4-4-4-4-|------------------------------|--0--0-0--0--0-0--0-0-0-0-0-0-|
--2--2-2--2-2-2-2--2-2--2-2-2-|--4--4-4--4-4-4-0--0-0--0-0-0-|--2--2-2--2-2-2-2--2-2--2-2-2-|--4--4-4--4-4-4-0--0-0--0-0-0-|--4--4-4--4-4-4-4--4-4--4-4-4-|--6--6-6--6-6-6-2--2-2--2-2-2-|--2--2-2--2-2-2-2--2-2--2-2-2-|--4--4-4--4-4-4-0--0-0--0-0-0-|--2--2-2--2-2-2-2--2-2--2-2-2-|--4--4-4--4-4-4-4--4-4--4-4-4-|--2--2-2--2-2-2-2--2-2--2-2-2-|--4--4-4--4-4-4-0--0-0--0-0-0-|
"I throw away..." "I've written you"
--2--2-2--2-2-2-2--2-2--2-2-2-|--4--4-4--4-4-4-0--0-0--0-0-0-|--2--2-2--2-2-2-2--2-2--2-2-2-|--4--4-4--4-4-4-0--0-0--0-0-0-|--4--4-4--4-4-4-4--4-4--4-4-4-|--6--6-6--6-6-6-2--2-2--2-2-2-|--2--2-2--2-2-2-2--2-2--2-2-2-|--4--4-4--4-4-4-0--0-0--0-0-0-|--2--2-2--2-2-2-2--2-2--2-2-2-|--4--4-4--4-4-4-4--4-4--4-4-4-|--2--2-2--2-2-2-2--2-2--2-2-2-|--4--4-4--4-4-4-0--0-0--0-0-0-|
--2--2-2--2-2-2-2--2-2--2-2-2-|--4--4-4--4-4-4-0--0-0--0-0-0-|--2--2-2--2-2-2-2--2-2--2-2-2-|--4--4-4--4-4-4-0--0-0--0-0-0-|--4--4-4--4-4-4-4--4-4--4-4-4-|--6--6-6--6-6-6-2--2-2--2-2-2-|--2--2-2--2-2-2-2--2-2--2-2-2-|--4--4-4--4-4-4-0--0-0--0-0-0-|--2--2-2--2-2-2-2--2-2--2-2-2-|--4--4-4--4-4-4-4--4-4--4-4-4-|--2--2-2--2-2-2-2--2-2--2-2-2-|--4--4-4--4-4-4-0--0-0--0-0-0-|
--2--2-2--2-2-2-2--2-2--2-2-2-|--2--2-2--2-2-2-2--2-2--2-2-2-|--2--2-2--2-2-2-2--2-2--2-2-2-|--2--2-2--2-2-2-2--2-2--2-2-2-|--4--4-4--4-4-4-4--4-4--4-4-4-|--4--4-4--4-4-4-4--4-4--4-4-4-|--2--2-2--2-2-2-2--2-2--2-2-2-|--2--2-2--2-2-2-2--2-2--2-2-2-|--2--2-2--2-2-2-2--2-2--2-2-2-|--2--2-2--2-2-2-2--2-2--2-2-2-|--2--2-2--2-2-2-2--2-2--2-2-2-|--2--2-2--2-2-2-2--2-2--2-2-2-|
"Sometimes I wish..." Verse
D||-------------------|A||--0----------------|G||--2----------------|D||--2----------------|A||--0-(hold)---------|D||-------------------|
----------------------------------|----------------------------------|----------------------------------|----------------------------------|--------2-------2-------1-------1-|--------2-------2-------2-------2-|------0-------0-------0-------0---|------0-------0-------0-------0---|----4-------4-------0-------0-----|----4-------4-------4-------4-----|--4-------4-------2-------2-------|--0-------0-------0-------0-------|
----------------------------------|----------------------------------|--------0-------0-------0-------0-|--------0-------0-------0-------0-|------2-------2-------2-------2---|------2-------2-------2-------2---|----2-------2-------2-------2-----|----2-------2-------2-------2-----|--0-------0-------0-------0-------|--0-------0-------0-------0-------|----------------------------------|----------------------------------|
----------------------------------|----------------------------------|--------0-------0-------0-------0-|----------------------------------|------2-------2-------2-------2---|--------2-------2-------1-------1-|----2-------2-------2-------2-----|------0-------0-------0-------0---|--0-------0-------0-------0-------|----4-------4-------0-------0-----|----------------------------------|--4-------4-------2-------2-------|
----------------------------------|----------------------------------|----------------------------------|--------0-------0-------0-------0-|--------2-------2-------2-------2-|------2-------2-------2-------2---|------0-------0-------0-------0---|----2-------2-------2-------2-----|----4-------4-------4-------4-----|--0-------0-------0-------0-------|--0-------0-------0-------0-------|----------------------------------|
----------------------------------|--------0-------0-------0-------0-|------2-------2-------2-------2---|----2-------2-------2-------2-----|--0-------0-------0-------0-------|----------------------------------|
Chorus
D||--0--0-0--0--0-0--0-0-0-0-0-0-|--0--0-0--0--0-0--0-0-0-0-0-0-|A||--0--0-0--0--0-0--0-0-0-0-0-0-|--0--0-0--0--0-0--0-0-0-0-0-0-|G||--2--2-2--2--2-2--2-2-2-2-2-2-|--2--2-2--2--2-2--2-2-2-2-2-2-|D||--0--0-0--0--0-0--0-0-0-0-0-0-|--0--0-0--0--0-0--0-0-0-0-0-0-|A||--4--4-4--4--4-4--4-4-4-4-4-4-|--4--4-4--4--4-4--4-4-4-4-4-4-|D||--4--4-4--4--4-4--4-4-4-4-4-4-|--0--0-0--0--0-0--0-0-0-0-0-0-|
------------------------------|--2--2-2--2--2-2--2-2-2-2-2-2-|--0--0-0--0--0-0--0-0-0-0-0-0-|--2--2-2--2--2-2--2-2-2-2-2-2-|--2--2-2--2--2-2--2-2-2-2-2-2-|--4--4-4--4--4-4--4-4-4-4-4-4-|--2--2-2--2--2-2--2-2-2-2-2-2-|--2--2-2--2--2-2--2-2-2-2-2-2-|--0--0-0--0--0-0--0-0-0-0-0-0-|--2--2-2--2--2-2--2-2-2-2-2-2-|------------------------------|--2--2-2--2--2-2--2-2-2-2-2-2-|
--0--0-0--0--0-0--0-0-0-0-0-0-|--0--0-0--0--0-0--0-0-0-0-0-0-|--0--0-0--0--0-0--0-0-0-0-0-0-|--0--0-0--0--0-0--0-0-0-0-0-0-|--2--2-2--2--2-2--2-2-2-2-2-2-|--2--2-2--2--2-2--2-2-2-2-2-2-|--0--0-0--0--0-0--0-0-0-0-0-0-|--0--0-0--0--0-0--0-0-0-0-0-0-|--4--4-4--4--4-4--4-4-4-4-4-4-|--4--4-4--4--4-4--4-4-4-4-4-4-|--4--4-4--4--4-4--4-4-4-4-4-4-|--0--0-0--0--0-0--0-0-0-0-0-0-|
------------------------------|--2--2-2--2--2-2--2-2-2-2-2-2-|--0--0-0--0--0-0--0-0-0-0-0-0-|--2--2-2--2--2-2--2-2-2-2-2-2-|--2--2-2--2--2-2--2-2-2-2-2-2-|--4--4-4--4--4-4--4-4-4-4-4-4-|--2--2-2--2--2-2--2-2-2-2-2-2-|--2--2-2--2--2-2--2-2-2-2-2-2-|--0--0-0--0--0-0--0-0-0-0-0-0-|--2--2-2--2--2-2--2-2-2-2-2-2-|------------------------------|--2--2-2--2--2-2--2-2-2-2-2-2-|
--0--0-0--0--0-0--0-0-0-0-0-0-|--0--0-0--0--0-0--0-0-0-0-0-0-|--0--0-0--0--0-0--0-0-0-0-0-0-|--0--0-0--0--0-0--0-0-0-0-0-0-|--2--2-2--2--2-2--2-2-2-2-2-2-|--2--2-2--2--2-2--2-2-2-2-2-2-|--0--0-0--0--0-0--0-0-0-0-0-0-|--0--0-0--0--0-0--0-0-0-0-0-0-|--4--4-4--4--4-4--4-4-4-4-4-4-|--4--4-4--4--4-4--4-4-4-4-4-4-|--4--4-4--4--4-4--4-4-4-4-4-4-|--0--0-0--0--0-0--0-0-0-0-0-0-|
------------------------------|--2--2-2--2--2-2--2-2-2-2-2-2-|--0--0-0--0--0-0--0-0-0-0-0-0-|--2--2-2--2--2-2--2-2-2-2-2-2-|--2--2-2--2--2-2--2-2-2-2-2-2-|--4--4-4--4--4-4--4-4-4-4-4-4-|--2--2-2--2--2-2--2-2-2-2-2-2-|--2--2-2--2--2-2--2-2-2-2-2-2-|--0--0-0--0--0-0--0-0-0-0-0-0-|--2--2-2--2--2-2--2-2-2-2-2-2-|------------------------------|--2--2-2--2--2-2--2-2-2-2-2-2-|
--0--0-0--0--0-0--0-0-0-0-0-0-|--0--0-0--0--0-0--0-0-0-0-0-0-|--0--0-0--0--0-0--0-0-0-0-0-0-|--0--0-0--0--0-0--0-0-0-0-0-0-|--2--2-2--2--2-2--2-2-2-2-2-2-|--2--2-2--2--2-2--2-2-2-2-2-2-|--0--0-0--0--0-0--0-0-0-0-0-0-|--0--0-0--0--0-0--0-0-0-0-0-0-|--4--4-4--4--4-4--4-4-4-4-4-4-|--4--4-4--4--4-4--4-4-4-4-4-4-|--4--4-4--4--4-4--4-4-4-4-4-4-|--0--0-0--0--0-0--0-0-0-0-0-0-|
End
D||--------------------------------|-----------------2--------|A||--0-0-0-0--0-0-0-0-0-0-0--0-0-0-|--0-0-0-0--0-0-0-2--------|G||--2-2-2-2--2-2-2-2-2-2-2--2-2-2-|--2-2-2-2--2-2-2-2--------|D||--2-2-2-2--2-2-2-2-2-2-2--2-2-2-|--2-2-2-2--2-2-2-2--------|A||--0-0-0-0--0-0-0-0-0-0-0--0-0-0-|--0-0-0-0--0-0-0-0 (hold)-|D||--------------------------------|--------------------------|
Corrections? Feel free to comment, but be polite or die! :)
Please rate this tab:
x1.0