Jimmy Eat World - World You Love tab

Jimmy Eat World
The world you love
Tabbed By: Jayden Nicholl

I noticed there wasn't a tab for this
song on this site so i gave it a go
and tabbed it out

Tuning
Guitar 1      Guitar 2
eb		eb
Bb		Bb
Gb		Gb
Db		Db
Ab		Ab
Eb		Db


Intro/Verse:Guitar 1--------------------------------------------------|--------------------------------------------------|-------4-----4-----4------------4-----4-----4-----|-----7-----7-----7---7--------7-----7-----7---7---|-0-0-----0-----0----------0-0-----0-----0---------|--------------------------------------------------|
--------------------------------------------------|--------------------------------------------------|-------4-----4-----4------------4-----4-----4-----|-----7-----7-----7---7--------7-----7-----7---7---|-5-5-----5-----5----------0-0-----0-----0---------|--------------------------------------------------|
--------------------------------------------------|--------------------------------------------------|-------4-----4-----4------------4-----4-----4-----|-----7-----7-----7---7--------7-----7-----7---7---|-0-0-----0-----0----------0-0-----0-----0---------|--------------------------------------------------|
--------------------------------------------------|--------------------------------------------------|-------4-----4-----4------------4-----4-----4-----|-----7-----7-----7---7--------7-----7-----7---7---|-5-5-----5-----5----------5-5-----5-----5---------|--------------------------------------------------|
--------------------------------------------------|--------------------------------------------------|-----4-6-4--------4-6-4---------4-----4-----4-----|-4-4-------4--4-4-------4-----7-----7-----7---7---|--------------------------5-5-----5-----5---------|--------------------------------------------------|
After Verse Guitar 2: figure out strumming patern it's easy
---------------------------------------------------|---------------------------------------------------|---------------------------------------------------|---7-----------------------------------------------|---7----x32 times----------------------------------|---7-----------------------------------------------|
Verse 2: Guitar 2: palm mute this
---------------------------------------------------|---------------------------------------------------|------------------7------------66------------------|---7--------------7--x14 times-66---7--------------|---7--x32 times---5------------44---7--x16 times---|---7--------------------------------7--------------|
---------------------------------------------------|---------------------------------------------------|------------------7--------------------------------|---7--------------7--x32 times---------------------|---7--x32 times---5--------------------------------|---7-----------------------------------------------|
---------------------------------------------------|---------------------------------------------------|---------------------------------------------------|---4---------------0-------------------------------|---4--x16 times----0--x16 times--------------------|---4---------------0-------------------------------|
Guitar one: at the end of verse 2
--------------------------------------------|-------10------------10-------10------------|-7-8-7---------7-8-7----7-8-7----7-8-7------|--------------------------------------------|--------------------------------------------|--------------------------------------------|
Chorus: Guitar 2:
---------------------------------------------------|---------------------------------------------------|---------------------------------------------------|---7--------------0--------------------------------|---7--x32 times---0--x32 times---------------------|---7--------------0--------------------------------|
---------------------------------------------------|---------------------------------------------------|---------------------------------------------------|---4--------------0--------------------------------|---4--x16 times---0--x16 times---------------------|---4--------------0--------------------------------|
---------------------------------------------------|---------------------------------------------------|---------------------------------------------------|---7--------------7--------------------------------|---7--x32 times---7--x32 times---------------------|---7--------------7--------------------------------|
Guitar 1: end of chorus
---------------------------------------------------|-------12-12-----12-12-----12-12----12-12----------|---9-9-------9-9-------9-9-------9-9---------------|---------------------------------------------------|---------------------------------------------------|---------------------------------------------------|
Verse 3:
---------------------------------------------------|---------------------------------------------------|---------------------------------------------------|---7--------------0--------------7-----------------|---7--x32 times---0--x16 times---7--x16 times------|---7--------------0--------------7-----------------|
---------------------------------------------------|---------------------------------------------------|---------------------------------------------------|---7--------------0--------------------------------|---7--x32 times---0--x32 times---------------------|---7--------------0--------------------------------|
---------------------------------------------------|---------------------------------------------------|---------------------------------------------------|---4---------------0-------------------------------|---4--x16 times----0--x16 times--------------------|---4---------------0-------------------------------|
Guitar one: at the end of verse 2
--------------------------------------------|-------10------------10-------10------------|-7-8-7---------7-8-7----7-8-7----7-8-7------|--------------------------------------------|--------------------------------------------|--------------------------------------------|
Chorus: Guitar 2:
---------------------------------------------------|---------------------------------------------------|---------------------------------------------------|---7--------------0--------------------------------|---7--x32 times---0--x32 times---------------------|---7--------------0--------------------------------|
---------------------------------------------------|---------------------------------------------------|---------------------------------------------------|---4--------------0--------------------------------|---4--x16 times---0--x16 times---------------------|---4--------------0--------------------------------|
---------------------------------------------------|---------------------------------------------------|---------------------------------------------------|---7-----------------------------------------------|---7--x32 times------------------------------------|---7-----------------------------------------------|
Guitar 1: end of chorus
---------------------------------------------------|-------12-12-----12-12-----12-12----12-12----------|---9-9-------9-9-------9-9-------9-9---------------|---------------------------------------------------|---------------------------------------------------|---------------------------------------------------|
Solo: Guitar 1:
---------------------------------------------------|--10-9-10---10-9-10----10-9--------10-9------------|----------9---------9-------11-11-------11-11------|---------------------------------------------------|---------------------------------------------------|---------------------------------------------------|
---------------------------------------------------|--10-9-10---10-9-10--------------------------------|----------9---------9---9-11--9-11--9-11--9-11-----|---------------------------------------------------|---------------------------------------------------|---------------------------------------------------|
---------------------------------------------------|--14-12-14----14-12-14-----14-12-------14-12-------|-----------13----------13--------14-14-------14-14-|---------------------------------------------------|---------------------------------------------------|---------------------------------------------------|
----------------------------------------------------------|-14-12-14----14-12-14-------------------12-14-12-14-15p14-|----------13----------13---13-14--13-14-------------------|----------------------------------------------------------|----------------------------------------------------------|----------------------------------------------------------|
Guitar 2: play this open in background of solo
---------------------------------------------------|---------------------------------------------------|---------------------------------------------------|---7--------------4--------------------------------|---7--x16 times---4--x16 times---------------------|---7--------------4--------------------------------|
X2---------------------------------------------------|---------------------------------------------------|---------------------------------------------------|---2--------------0--------------------------------|---2--x16 times---0--x16 times---------------------|---2--------------0--------------------------------|
Verse 4: Guitar 1:
--------------------------------------------------|--------------------------------------------------|-------4-----4-----4------------4-----4-----4-----|-----7-----7-----7---7--------7-----7-----7---7---|-0-0-----0-----0----------0-0-----0-----0---------|--------------------------------------------------|
--------------------------------------------------|--------------------------------------------------|-------4-----4-----4------------4-----4-----4-----|-----7-----7-----7---7--------7-----7-----7---7---|-0-0-----0-----0----------0-0-----0-----0---------|--------------------------------------------------|
--------------------------------------------------|--------------------------------------------------|-------4-----4-----4------------4-----4-----4-----|-----7-----7-----7---7--------7-----7-----7---7---|-5-5-----5-----5----------5-5-----5-----5---------|--------------------------------------------------|
--------------------------------------------------|--------------------------------------------------|-----4-6-4--------4-6-4---------4-----4-----4-----|-4-4-------4--4-4-------4-----7-----7-----7---7---|--------------------------5-5-----5-----5---------|--------------------------------------------------|
--------------------------------------------------|--------------------------------------------------|-----4-6-4--------4-6-4---------4-----4-----4-----|-4-4-------4--4-4-------4-----7-----7-----7---7---|--------------------------5-5-----5-----5---------|--------------------------------------------------|
Guitar 2: Come in palm muting halfway through
---------------------------------------------------|---------------------------------------------------|---------------------------------------------------|---4---------------0-------------------------------|---4--x16 times----0--x16 times--------------------|---4---------------0-------------------------------|
---------------------------------------------------|---------------------------------------------------|---------------------------------------------------|---4---------------0-------------------------------|---4--x16 times----0--x16 times--------------------|---4---------------0-------------------------------|
then open
------|------|--77--|--77--|--55--|------|
Chorus: Guitar 2:
---------------------------------------------------|---------------------------------------------------|---------------------------------------------------|---7--------------0--------------------------------|---7--x32 times---0--x32 times---------------------|---7--------------0--------------------------------|
---------------------------------------------------|---------------------------------------------------|---------------------------------------------------|---4--------------0--------------------------------|---4--x16 times---0--x16 times---------------------|---4--------------0--------------------------------|
---------------------------------------------------|---------------------------------------------------|---------------------------------------------------|---7--------------0--------------------------------|---7--x32 times---0--x32 times---------------------|---7--------------0--------------------------------|
---------------------------------------------------|---------------------------------------------------|---------------------------------------------------|---4--------------0--------------------------------|---4--x16 times---0--x16 times---------------------|---4--------------0--------------------------------|
---------------------------------------------------|---------------------------------------------------|---------------------------------------------------|---7--------------7--------------------------------|---7--x32 times---7--x32 times---------------------|---7--------------7--------------------------------|
Guitar 1: Beginning of second chorus
---------------------------------------------------|--10-9-10---10-9-10----10-9-10----10-9-10----------|----------9---------9----------9----------9--------|---------------------------------------------------|---------------------------------------------------|---------------------------------------------------|
end of second chorus---------------------------------------------------|-------12-12-----12-12-----12-12----12-12----------|---9-9-------9-9-------9-9-------9-9---------------|---------------------------------------------------|---------------------------------------------------|---------------------------------------------------|
---------------------------------------------------|--10-9------10-9-------10-9-------10-9-------------|---------------------------------------------------|---------------------------------------------------|---------------------------------------------------|---------------------------------------------------|
And thats pretty much it. Any comments or questions email me at neydan_jiggle@hotmail.com Ps. TFW rock!
Tap to rate this tab
 
# A B C D E F G H I J K L M N O P Q R S T U V W X Y Z