Jimmy Page - Choker tab

jimmy page - guitar for hire - choker

tune about a 1/4 step up

i'm an old man... this computer crap is foreign to me...
also, this is my first tab.. the mistakes are easily correctable if you
listen to the song..


-----------------------------------------------|-------------------------------------------9---|10-10-8-10-8-10-10-8-10-8-10-10-8-10-8-10-10---|-----------------------------------------------|-----------------------------------------------|-----------------------------------------------|
------------------------------------------|---------------------------------9--------|---------------------------------7-&(*)---|-8-8-6-8-6-8-8-6-8-6-8-8-6-8-6-8---&(*)---|------------------------------------------|------------------------------------------|
-----------------------------------|11b12-11b12b11-9-11-9---------9b10-|----------------------10-8-10------|-----------------------------------|-----------------------------------|-----------------------------------|
---------------------------------1-------------------------------|-------------------------------1-------------------------------3-|3b4(4)b3p1---3-1---1---3-1-3b4-----3b4r3-1-3-1---1---3-1-------3-|-----------3-----3---3-------------------------3---3-----3-1-3-2-|---------------------------------------------------------------3-|-----------------------------------------------------------------|
-----------------------------------.--------9b10-(11)b12r11-9---------9.8-10-10-------------------10-8-10--.-----------------------------------.-----------------------------------.-----------------------------------.
-------------------------------1.------------------------------|-1-----------------------------1.-v-------v----------9-11b12---|---3p1---3-1-------1---3-1-3b4--./10-10-8-10-10-8-10-----------|-------3-----3-1-3---3----------.------------------------------|--------------------------------.------------------------------|--------------------------------.------------------------------|
-------------------------------.11b12r11p9-11-9------v--9----11.----------------10-8-10---10---.-------------------------------.-------------------------------.-------------------------------.
-----------------------------------------------------------------..-11b12xxxr11-9----------9-(9)-9---9--9-----9----9-----9-8/9------..---------------10-8-10-(10)10(10)-10-10-10---10---8/10--9/10-8/10..-----------------------------------------------------------------..-----------------------------------------------------------------..-----------------------------------------------------------------..
--------------------------------------------.9------9----9----9--------------------------.--8/10---10---10----------------------------.-------------------10-8-10/8-6---8-6---6----.-------------------------------8-----8------.-----------------------------------------8-6.
-4b5-1---1------------------------------.-------------|-------4-------1-----------1------------.-------------|-----------3b4---3b4r3p1-----3b.25------.-------------|-------------------------3---------3p1-3.-------------|----------------------------------------.-------------|----------------------------------------.-------------|
----1--------------------------------------------.---------------------------|----1-4p1-----1----------------------------------.---------------------------|3b4-------3b4---3b4r3p1-3p1---------1---3p1-3-2--.7/8-8-5---5----------------|----------------------------3p1-3-3---3----------.--------8---8b.5r8-6-------|------------------------------------------------3.---------------------8-6-8-|-------------------------------------------------.---------------------------|
--------------------------.------------------------.--------------------------.------------------------.-7/8-8-8-5h7-5---5--------.-7/8-8-8-8-7-5---5------.---------------8---6------.---------------8---8-6--.---------------------8-6-8.-----------------------8.--------------------------.------------------------.
---------------------.------------------------.---------------------.------------------------.-8b9(r.5)x8-5h8p5---5.-5p3--------------------.------------------8--.-----6-----6-8---6-8b9--.---------------------.-------6-8-----8--------.---------------------.------------------------.
-------------------------------|-----|-------------------------------------|----5-5-----5-5-----5-5-----5-5|----5|8b9-----8b9-----8b9-----8b9-----8b9--|-------------------------------|-----|-------------------------------------|
--------------------------------------------------------------|--------------------------------------------------------------|5-----5-----5-----5-----5-----5-----5-----5-----5-----5-----5-|--8b9---8b9---8b9---8b9---8b9---8b9---8b9---8b9---8b9---8b9---|--------------------------------------------------------------|--------------------------------------------------------------|
---------------.--------------.-------------------------------------|---------------.--------------.-9b10xxxr9-6---6---------------------|---------------.--------------.-------------8---5-------------------|8b9r8-6-8p6---6.-------6---8-6.-------------------8b9r8-6-8-6-------|------------8--.-8-6-8---8----.-------------------------------8-6-8-|---------------.--------------.-------------------------------------|
Tap to rate this tab
 
# A B C D E F G H I J K L M N O P Q R S T U V W X Y Z