Joan Jett - Acdc tab

--Verse:

E|----------------------------------------------------------------|B|----------------------------------------------------------------|G|----------------------------------------------------------------|D|-9-9-119--9-119------------------9-9-119--9-119--9-9-119--9-119-|A|-7-7-7-7--7-7-7--7-7-9-7--7-9-7--7-7-7-7--7-7-7--7-7-7-7--7-7-7-|E|-----------------5-5-5-5--5-5-5---------------------------------|
| | |----------------------------------------------------------------| |----------------------------------------------------------------| |----------------------------------------------------------------| |-------------------------2-2-42---------------------------2-2-24| |--------2-2-42---0-0-4-4------------------2-2-42--0-0-4-4-------| |0-0-4-4---------------------------0-0-4-4-----------------------|
She got girls Girls all over the world She got men Every now and then
|------------------------------------------------------------------------------------||------------------------------------------------------------------------------------||------------------------------------------------------------------------------------||-----------------9-9-119--9-119------------------9-9-119--9-119------------------9--||-7-7-9-7--7-9-7--7-7-7-7--7-7-7--7-7-9-7--7-9-7--7-7-7-7--7-7-7--7-7-9-7--7-9-7--9--||-5-5-5-5--5-5-5------------------5-5-5-5--5-5-5------------------5-5-5-5--5-5-5--7--|
| ||------------------------------------------------------------------------------------||------------------------------------------------------------------------------------||---------------------------------------------------------------------------------4--||--------2-2-42---------------------------2-2-24---------------------------2-2-42-4--||0-0-4-4------------------2-2-42--0-0-4-4-----------------2-2-42---0-0-4-4--------2--||-----------------0-0-4-4-------------------------0-0-4-4----------------------------|
But she can't make up her mind, on just how fill her time, and the only way she can wind --Chorus:
|------------------------------------||------------------------------------||----------------8/9-99-8/9-99-8/9-99||-2---5---7---9--8/9-99-8/9-99-8/9-99||-2---5---7---9--6/7-77-6/7-77-6/7-77||-0---3---5---7----------------------|
AC DC She's got some other lover as well as me AC DC She's got some other fella as well as me
|----------------||----------------||------4---4-----||--7---4---4-----||--7---2---2-----||--5--------3-0~~|
She's got some other lover as well as me -- Then is the same as verse: She got spunk But they call her a punk She can sing You wanna see her Ding-a-ling Well let's be in it together I guess she'll be in it forever You gotta take it now or never -- Then repeat the Chorus ACDC She's got some other lover as well as me ACDC She's got some other fella as well as me She's got some other lover as well as me --Solo:
|-----------17-17-17-16-17-16-17-16----------||3//17-17---------------------------17-17\\3-||--------------------------------------------||--------------------------------------------||--------------------------------------------||--------------------------------------------|
|----------19b21-19--17--17----------------||3//17-17--------------21--21-17--17\15-15-||------------------------------------------||------------------------------------------||------------------------------------------||------------------------------------------|
|------------------------12/15p12-15p12-15p12--------------------12----12-------||---------------------------------------------15-12-15--12/14-14----14----14-15-||-9/12p9-12p9-12p9-12p9---------------------------------------------------------||-------------------------------------------------------------------------------||-------------------------------------------------------------------------------||-------------------------------------------------------------------------------|
|-------------------||-------------------||-4-5--6--7-8/9-----||-4-5--6--7-8/9-2~~-||-2-3--4--5-6/7-2~~-||---------------0~~-|
-- The verse but with a heavy palm mute:
|-----------------------------------------------------------||-----------------------------------------------------------||-----------------------------------------------------------||-1414141414141414141414141414141413s14141413s141413s141414-||-1414141414141414121212121212121213s14141413s141413s141414-||-1212121212121212----------------11s12121211s121211s121212-|
She got girls, girls all over the world She got men, every now and then
|--------------------------------------------------------------------------------------------||--------------------------------------------------------------------------------------------||1414141414141414----------------1414141414141414----------------14141414141414141616161616--|..
|141414141414141413s14141413s1414141414141414141413s14141413s141414141414141414141616161616...|121212121212121213s14141413s1414121212121212121213s14141413s141412121212121212121414141414...|----------------11s12121211s1212----------------11s12121211s1212----------------------------
-- Chorus ACDC She's got a lover as well as me ACDC She's got a fella as well as me She's got a fella as well as me She's got some other lover as well as me (repeating the last riff) -- Then the riff is the same as in the heavy palm mute part. Dougie's guitar plays (with palm muting):
E|----------------------------|B|----------------------------|G|----------------------------|--- x4 timesD|---------------------22-4p2-|A|-------22-4p2--00-44--------|E|-00-44----------------------|
ACDC Some other lover as well as me ACDC Some other fella as well as me -- Then when Joan begins to sing loud the guitar plays:
|--------------------------------||--------------------------------||-8/99999999-13/1414141414141414-||-8/99999999-13/1414141414141414-|---- (x4 times)|-6/77777777-11/1212121212121212-||--------------------------------|
The last chord can be played easier in:
|------||-9/10-||-8/9--||-6/7--||------||------|
-- The End:
|--------------------||--------------------||-4--4-5-6-7-8-9-----||-4--4-5-6-7-8-9-2~~-||-2--2-3-4-5-6-7-2~~-||----------------0~~-|
Tap to rate this tab
 
# A B C D E F G H I J K L M N O P Q R S T U V W X Y Z