Job For A Cowboy - Bearing The Serpents Lamb tab

Artist: Job For A Cowboy
Song: Bearing The Serpents Lamb
Album: Genesis
Tuning: Bb F Bb Eb G C 

INTRO:||--------------------------------||||--------------------------------||||--------------------------------||||-2~---2-------------------------||||-2~-----3-2-3-2---2-----1-------||||-2~-------------5---5-2---5-1---||
||-----------------------------------------------------------||||-----------------------------------------------------------||||-----------------------------------------------------------||||------2h5p2-------------5h8p5-------------2h5p2------------||||-----------------------------------------------------------||||--2-1-------5-2-5-2-5-4-------8-5-8-5-2-1-------5-2-5-2----||
||----------------------------------||||----------------------------------||||----------------------------------||||----------------------------------||||-----2---2-3----------------------||||-222---2-----1-11111111111111-----||
||------------------------------------------------------------||||------------------------------------------------------------||||------------------------------------------------------------||||------5h8p5-------------8h11p8-------------5h8p5------------||||------------------------------------------------------------||||--5-4-------8-5-8-5-8-7--------8-5-8-5-5-4-------8-5-8-5----||
||----------------------------------||||----------------------------------||||----------------------------------||||----------------------------------||||-----2---2-3----------------------||||-222---2-----1-11111111111111-----||
||----------------------------------------------------||||----------------------------------------------------||||----------------------------------------------------||||----------------------------------------------------||||-2-----2-----2-------1-----5-----5-----5-------4h7--||||---2-2---2-2---2-2-5---5-----5-5---5-5---5-5-8------||
||-----------------------------------------------------||||-----------------------------------------------------||||-----------------------------------------------------||||-----------------------------------------------------||||-2-----2-----2-------1----5-------4h7-8--------7h10--||||---2-2---2-2---2-2-5---5----5-5-8-------8-8-11-------||
||------------------------------------------------------||||------------------------------------------------------||||------------------------------------------------------||||------------------------------------------------------||||-5-----5-----5-------4-----8-----8-----8--------7h10--||||---5-5---5-5---5-5-8---8-----8-8---8-8---8-8-11-------||
||-----------------------------------------------------------||||-----------------------------------------------------------||||-----------------------------------------------------------||||-----------------------------------------------------------||||-5-----5-----5-------4----8--------7h10-11----------10h13--||||---5-5---5-5---5-5-8---8----8-8-11---------11-11-14--------||
||-----------------------------------------------||||-----------------------------------------------||||-4----4-----3----------------------------------||||----------------4------5-----5-----5---4---8---||||--2-2---2-2---2---2-5--------------------------||||-------------------------5-5---5-5---5---5-----||
||-----------------------------------------------||||-----------------------------------------------||||-4----4-----3----------3-----3-----2---2---2---||||----------------4------------------------------||||--2-2---2-2---2---2-5----1-1---1-1---1---1-----||||-----------------------------------------------||
||-----------------------------------------------||||-----------------------------------------------||||-7----7-----6----------------------------------||||----------------7------8-----8-----8---7---11--||||--5-5---5-5---5---5-8--------------------------||||-------------------------8-8---8-8---8---8-----||
||-----------------------------------------------||||-----------------------------------------------||||-7----7-----6----------6-----6-----5---5---5---||||----------------7------------------------------||||--5-5---5-5---5---5-8----4-4---4-4---4---4-----||||-----------------------------------------------||
||----------------------------------------------------||||----------------------------------------------------||||----------------------------------------------------||||----------------------------------------------------||||-2-----2-----2-------1-----5-----5-----5-------4h7--||||---2-2---2-2---2-2-5---5-----5-5---5-5---5-5-8------||
||-----------------------------------------------------||||-----------------------------------------------------||||-----------------------------------------------------||||-----------------------------------------------------||||-2-----2-----2-------1----5-------4h7-8--------7h10--||||---2-2---2-2---2-2-5---5----5-5-8-------8-8-11-------||
||------------------------------------------------------||||------------------------------------------------------||||------------------------------------------------------||||------------------------------------------------------||||-5-----5-----5-------4-----8-----8-----8--------7h10--||||---5-5---5-5---5-5-8---8-----8-8---8-8---8-8-11-------||
||-----------------------------------------------------------||||-----------------------------------------------------------||||-----------------------------------------------------------||||-----------------------------------------------------------||||-5-----5-----5-------4----8--------7h10-11----------10h13--||||---5-5---5-5---5-5-8---8----8-8-11---------11-11-14--------||
x4||-------------------------------------------------||||o-----------------------------------------------o||||-------------------------------------------------||||------------------------------------------1h4----||||o-----------2-3---3---3-------2-3-----2---------o||||--2-222-222-----2---2---1-111-----111---1--------||
||-----------------------------------------------------------||||-----------------------------------------------------------||||-----------------------------------------------------------||||------2h5p2-------------5h8p5-------------2h5p2------------||||-----------------------------------------------------------||||--2-1-------5-2-5-2-5-4-------8-5-8-5-2-1-------5-2-5-2----||
||----------------------------------||||----------------------------------||||----------------------------------||||----------------------------------||||-----2---2-3----------------------||||-222---2-----1-11111111111111-----||
||------------------------------------------------------------||||------------------------------------------------------------||||------------------------------------------------------------||||------5h8p5-------------8h11p8-------------5h8p5------------||||------------------------------------------------------------||||--5-4-------8-5-8-5-8-7--------8-5-8-5-5-4-------8-5-8-5----||
||----------------------------------||||----------------------------------||||----------------------------------||||----------------------------------||||-----2---2-3----------------------||||-222---2-----1-11111111111111-----||
x2 ||---------------------------------||||o-------------------------------o||||---------------------------------||||--------5------------------------||||o----------3--2--4-----3--------o||||--2--1--------------2-----2--1---||
x2 ||---------------------------------||||o-------------------------------o||||---------------------------------||||--------8------------------------||||o----------6--5--7-----6--------o||||--5--4--------------5-----5--4---||
x3||---------------------------------------------||||o-------------------------------------------o||||---------------------------------------------||||----------2h5-4------------------------------||||o-----2-------------------------------------o||||--222---2-------000-000-2-000-000-1-000-000--||
||------------------------------||||------------------------------||||------------------------------||||----------2h5-4---------------||||------2-----------------------||||--222---2-------000-000-2--1--||
x2||---------------------------------------------||||o--------------------------------------------||||---------------------------------------------||||---------------------------------------------||||o--7-3---3---3-2---7---7---6---8---8---7-----||||-------2---2-----2---0---0---0---0---0---10--||
||-----------------------------------------------||||----------------------------------------------o||||-----------------------------------------------||||-----------------------------------------------||||---7-3---3---3-2---7---7---6---8---8---7------o||||-------2---2-----2---0---0---0---0---0---10/---||
||-----------------------------------------------||||-----------------------------------------------||||-----------------------------------------------||||-7---------------------7-----------------------||||---8---8---8-7-4---------8---8---8-7-4---------||||-----0---0-----------------0---0-------0-0-0-0-||
||--------------------------------------------------||||--------------------------------------------------||||--------------------------------------------------||||-7------------------------------------------------||||---8---8---8-7-4-----0h4-7-4---4---4-8-5---5---5--||||-----0---0-------0-0---------0---0-------0---0----||
||---------------------------------------------------||||---------------------------------------------------||||---------------------------------------------------||||-7-----------------------7-------------------------||||---8---8---8-7-4-----5h8---8---8---8-7-4-----------||||-----0---0-------0-0---------0---0-------0-0-0-0---||
||--------------------------------------------------||||--------------------------------------------------||||--------------------------------------------------||||-7------------------------------------------------||||---8---8---8-7-4-----0h4-7-4---4---4-8-5---5---5--||||-----0---0-------0-0---------0---0-------0---0----||
||---------------------------------------------------------------||||---------------------------------------------------------------||||---------------------------------------------------------------||||---------------------------------------------------------------||||-5-----------------------5-----------------5---5-4---8---8-7---|| ||---8-0-8-0-8-7-4-0-0-0-0---8-0-8-0-8-7-4-0---0-----0---0-------||
||-------------------------------------------------------------------||||o-----------------------------------------------------------------o||||-------------------------------------------------------------------||||-------------------------------------------------------------------||||o-5-----------------------5-----------------8---8-7---11---11-10--o|| ||----8-0-8-0-8-7-4-0-0-0-0---8-0-8-0-8-7-4-0---0-----0----0---------||
||----------------------------||||----------------------------||||----------------------------||||-4----------3----------5~---||||-2----------1---4---1--3~---||||----------------4---1-------||
||-----------------------------------------------||||-----------------------------------------------||||-4----4-----3----------3-----3-----2---2---2---||||----------------4------------------------------||||--2-2---2-2---2---2-5----1-1---1-1---1---1-----||||-----------------------------------------------||
||-----------------------------------------------||||-----------------------------------------------||||-7----7-----6----------------------------------||||----------------7------8-----8-----8---7---11--||||--5-5---5-5---5---5-8--------------------------||||-------------------------8-8---8-8---8---8-----||
||-----------------------------------------------||||-----------------------------------------------||||-7----7-----6----------6-----6-----5---5---5---||||----------------7------------------------------||||--5-5---5-5---5---5-8----4-4---4-4---4---4-----||||-----------------------------------------------||
||-----------------------------------------------||||-----------------------------------------------||||-4----4-----3----------------------------------||||----------------4------5-----5-----5---4---8---||||--2-2---2-2---2---2-5--------------------------||||-------------------------5-5---5-5---5---5-----||
||-----------------------------------------------||||-----------------------------------------------||||-4----4-----3----------3-----3-----2---2---2---||||----------------4------------------------------||||--2-2---2-2---2---2-5----1-1---1-1---1---1-----||||-----------------------------------------------||
||-----------------------------------------------||||-----------------------------------------------||||-7----7-----6----------------------------------||||----------------7------8-----8-----8---7---11--||||--5-5---5-5---5---5-8--------------------------||||-------------------------8-8---8-8---8---8-----||
||---------------------------------------||||---------------------------------------||||-7----7-----6--------------------------||||----------------7------5-----4---------||||--5-5---5-5---5---5-8--3-5-2-2-4-1-2---||||-------------------------5-2---4-1-2---||
Tap to rate this tab
 
# A B C D E F G H I J K L M N O P Q R S T U V W X Y Z