Job For A Cowboy - What We Once Called Home tab

tabs by: Mark Frimerman (this is my first tab so go easy) |:-D

tune your E string to Drop C (instead of 5 on low E matching the A string like relative 
Drop C is 9 on low E matching the A string, so you tune it down.)

t = tremelo (speed pick)
b = bend
p = pull off
h = hammer on
/ = slide up
~ = hold out note
d = double strumed (2 strums for each note)
v = vibrato
PM = palm mute
w = whammy bar


|-------------------------------------------------------------------------| |-------------------------------------------------------------------------| |-------------------------------------------------------------------------| |----t-t-t-t-t-t-t-t-t---t-t-t-t-t--t-t-t---------------------------------| |----6-5-6-5-6/8-6-5-6---6-5-6-5-6/10-8-6---------------------------------| |--8-------------------5------------------5/11-8~--7~--5~-----------------|
|-------------------------------------------------------------------------| |-------------------------------------------------------------------------| |-------------------------------------------------------------------------| |----t-t-t-t-t-t-t---t-t-t-t-t-t-t---t-----t------t-t-t-t-t-t-------------| |----5-6-5/8-6-5-6---5-6-5/9-8-6-8---8-----6------5-6-5-3-5-2~------------| |--8---------------5---------------8-----7------6-------------------------|
|-------------------------------------------------------------------------| |-------------------------------------------------------------------------| |--d-d-d-d-d-d-d---d-d-d-d-d-d-d------------------------------------------| |--5-5-3-6-5-3-5~--5-5-3-8-6-5-6----t------t------t-t-t-t-t-t-------------| |-----------------------------------8------6------5-6-5-3-5-2~------------| |---------------------------------8------7------6-------------------------|
|---------------------------------------16-16b----------------------------| |-------------------------------------------------------------------------| |----------------------------------------------------5v~------------------| |-------------------------------------------------------------------------| |--------------3h6-2h5----------------------------------------------------| |-00-00-00-0-0---------0~~~--00-00-00-0--------0~~------------------------|
|------------------------| |------------------------| |------------------------| |------------------------| 3x |--------------3h6-2h5---| |-00-00-00-0-0-----------|
|------------------------| |------------------------| |------------------------| |------------------------| |--------------3v~-------| |-00-00-00-000-----------|
|------------------------| |------------------------| |------------------------| |------------------------| 2x |--------------3h6-2h5---| |-00-00-00-0-0-----------|
|-----------------------------------------| |-----------------------------------------| |-----------------------------------------| |-----------------------------------------| |--------------3h6-2h5-3--5--6--5--6--2---| |-00-00-00-0-0----------------------------|
|-------------------------------------------------------------------------| |-t-t-t-t-t--t-t--t-t-t-t-t--t-t--t-t-t-t-t-t-----------------------------| |-5-7/8-7/10-8-7--5-7/8-7/10-8-7--4-5-7-4-5-7-----------------------------| |---------------------------------------------PM--PM--PM--PM--PM--PM------| |---------------------------------------------6---5---3---2---3---5-------| |-------------------------------------------------------------------------|
|-------------------------------------------------------------------------| |-t-t-t-t-t--t-t--t-t-t-t-t--t-t--t-t-t-t-t-t-----------------------------| |-5-7/8-7/10-8-7--5-7/8-7/10-8-7--4-5-7-4-5-7-----------------------------| |---------------------------------------------PM--PM--PM--PM--PM--PM------| |---------------------------------------------6---5---3---2---3---5-------| |-------------------------------------------------------------------------|
|-------------------------------------------------------------------------| |-------------------------------------------------------------------------| |-------------------------------------------------------------------------| |---------------------------------------------PM--PM--PM--PM--PM--PM------| |-3-5/6-5/8-6-5--3-5/6-5/8-6-5--2-3-5-2-3-5---6---5---3---2---3---5-------| |-------------------------------------------------------------------------|
|-------------------------------------------------------------------------| |-------------------------------------------------------------------------| |-------------------------------------------------------------------------| |-3-3h4p3h4-6-4h6p4-6-5h6p5h6-8b---------------PM--PM--PM--PM--PM--PM-----| |---------------------------------5-6-8-5-6-8--10--8---6---5---6---8------| |-------------------------------------------------------------------------|
|---------------------------| |---------------------------| |---------------------------| |---------------------------| 7x (or while he's screaming) |---------------------------| |-00---00---00---000-0-0----|
|-----------------------------------| |-----------------------------------| |-----------------------------------| |-----------------------------------| (the measure after he stops screaming) |----------PM--PM--PM--PM--PM--PM---| |-00---00--0---3---1---2---1---2----|
|-------------------------------------------------------------| |-------------------------------------------------------------| |-------------------d-d-d---d-d-d-----------------------------| |---d-d-d---d-d-d---5-3-1---6-5-3---d-d-d---d-d-d--t-----t----| 2x |-d-3-5-6-d-3-5-6-d-------d-------d-3-5-6-d-3-5-6--8---6-5~---| |-0-------0-------0-------0-------0-------0----------6--------|
|-----------| |-----------| |-----------| |-----------| |-----------| |---00-00---|
bass solo
|------------------------------| |------------------------------| |------------------------------| |------------------------------| 4x |------------------------------| |-4p0-0-1h2p1--0-00-00-00-00---|
|-----------------------------------------------------------------| |-----------------------------------------------------------------| |-----------------------------------------------------------------| |---------------t--t--t--t--t----t--t--t--t--t--------------------| |---------------9--3--9--11-3----9--3--9--11-3---PM--PM--PM--PM---| |-4p0-0-1h2p1-0----------------------------------4---2---1---3----|
|----------------------------| |----------------------------| |----------------------------| |----------------------------| 7x (or While he's screaming) |----------------------------| |-0000--0000--000-4p0-0-1~---|
|---------------------------| |---------------------------| |---------------------------| |---------------------------| |-------------3-5-6-5-3-2---| |-0000--0000----------------|
|-------------------------------------------------------------------------| |-t-t-t-t-t--t-t--t-t-t-t-t--t-t--t-t-t-t-t-t-----------------------------| |-5-7/8-7/10-8-7--5-7/8-7/10-8-7--4-5-7-4-5-7-----------------------------| |---------------------------------------------PM--PM--PM--PM--PM--PM------| |---------------------------------------------6---5---3---2---3---5-------| |-------------------------------------------------------------------------|
|-------------------------------------------------------------------------| |-t-t-t-t-t--t-t--t-t-t-t-t--t-t--t-t-t-t-t-t-----------------------------| |-5-7/8-7/10-8-7--5-7/8-7/10-8-7--4-5-7-4-5-7-----------------------------| |---------------------------------------------PM--PM--PM--PM--PM--PM------| |---------------------------------------------6---5---3---2---3---5-------| |-------------------------------------------------------------------------|
|-------------------------------------------------------------------------| |-------------------------------------------------------------------------| |-------------------------------------------------------------------------| |---------------------------------------------PM--PM--PM--PM--PM--PM------| |-3-5/6-5/8-6-5--3-5/6-5/8-6-5--2-3-5-2-3-5---6---5---3---2---3---5-------| |-------------------------------------------------------------------------|
|-------------------------------------------------------------------------| |-------------------------------------------------------------------------| |-------------------------------------------------------------------------| |-3-3h4p3h4-6-4h6p4-6-5h6p5h6-8b---------------PM--PM--PM--PM--PM--PM-----| |---------------------------------5-6-8-5-6-8--10--8---6---5---6---8------| |-------------------------------------------------------------------------|
|-----------------------------------------------------| |-----------------------------------------------------| |-----------------------------------------------------| |-----------------------------------------------------| |---3-3h5-----3-3h5-----3p2-----6-6----6-6h8----6p5---| |-0-------000-------000------00-----00-------00-------|
|--------------------------------| |--------------------------------| |--------------------------------| |--------------------------------| 4x |-----10-10----9-9h10p9----6p5---| |--00-------00----------00-------|
|---------------------------| |---------------------------| |---------------------------| |---------------------------| 3x |-----------------3h6-2h5---| |-000-0-0-000-0-0-----------|
|-----------------------| |-----------------------| |-----------------5v~---| |-----------------------| |-----------------------| |-000-0-0-000-0-0-------|
|-------------------| |-------------------| |-------------------| |-------------------| 3x |-------------------| |-000-0-0-000-0-0---|
|-----------------------| |-----------------------| |-----------------5v~---| |-----------------------| |-----------------------| |-000-0-0-000-0-0-------|
|-------------------| |-------------------| |-------------------| |-------------------| 4x |-------------------| |-000-0-0-000-0-0---|
|--------------------------------------------------------| |--------------------------------------------------------| |--------------------------------------------------------| |--------------------------------------------------------| |--------------------------------------------------------| |-000-0-0-000-0-00------------------1/11-----7bw---------|
|-----------------------| |-----------------------| |-----------------------| repeat until song fades out, use the whammy bar |-----------------------| for the "dying" effect (im not sure about the |-----------------------| whammy bar part; i don't have a whammy bar) |-00--00--00--000-0-0---|
LEARNING THE TABS ARE MUCH EASIER IF YOU FOLLOW THE TABS AS THE SONG PLAYS thank you and enjoy! this is a really fun song!
Tap to rate this tab
 
# A B C D E F G H I J K L M N O P Q R S T U V W X Y Z