Job For A Cowboy – Day In Black tab

 Tabs by: Mark Frimerman

tune your E string to Drop C (instead of 5 on low E matching the A string like relative, 
C is 9 on low E matching the A string, so you tune it down.)

t = tremelo (speed pick)
b = bend
p = pull off
h = hammer on
/ = slide up
\ = slide down
~ = hold out note
v = vibrato
PM = palm mute
s = stop the sring
x = mute string


|----------------------------------------------------------| |----------------------------------------------------------| |----------------------------------------------------------| |----------------------------------------------------------| 2x |-3/6-5-6-8-6-5-6-5-3-5b-3~--3/6-5-6-8-6-5-6/10-8-6-8b-5~--| |----------------------------------------------------------|
|-----------------------------| |-----------------------------| |-----------------------------| |-----------------------------| 3x |-----------------------------| |-00000000-0-0-0--00000000-0--|
|-------------------------| |-------------------------| |------------------t---t--| |----------------t-6-t-5--| |----------------3---2----| |-00000000-0-0-0----------|
|-----------------------------| |-----------------------------| |-----------------------------| |-----------------------------| 8x |-----------------------------| |-00000000-0-0-0--00000000-0--|
|-------------------------------------------------------| |-------------------------------------------------------| |-------------------------------------------------------| |---t-t-t-t-t-------t-t-t-t-t-t-t---t-t-t-t-t-----------| 2x |---3-5-6-5-3-------3-5-6-8-6-5-6---3-5-6-5-3-----t--t--| |-0-----------0-0-0---------------0-----------0-0-8--5--|
|------------------------------------------------------| |------------------------------------------------------| |---t-t-t-t-t-------t-t-t-t-t-t-t----t-t-t-t-----------| |---1-3-5-3-1-------1-3-5-6-5-3-5----3-5-3-1-----------| |------------------------------------------------t--t--| |-0-----------0-0-0---------------0----------0-0-8--5--|
|------------------------------------| |------------------------------------| |------------------------------------| |---5-3-x-6-5-0-1---5-3-x-6-5-1-3-0--| 2x |------------------------------------| |-0---------------0------------------|
|--------------------------------------------------------------------------| |--------------------------------------------------------------------------| |--------------------------------------------------------------------------| |--------------------------------------------------------------------------| |-3---3--3--3h4h5h6---6--6--6--8-6-5-6---6--6--6----------5-5-5-------3-3-3| |---00--0--0--------00--0--0--0--------00--0--0--5~/8-8-8-------5-5-5------|
|-----------------------------------------------------------| |-----------------------------------------------------------| |-----------------------------------------------------------| |-s-s-s-s-s-s-s-s-s-s-s-s-s-s-s-----------------------------| |-3-3-3-3h4h5h6-6-6-8-6-5-6-6-6----------5-5-5-------3-3-3--| |-------------------------------5~/8-8-8-------5-5-5--------|
|---------------------------------------------------------| |---------------------------------------------------------| |------------s-s-s-s-s-s-s-s-s----------------------------| |-s-s-s-s-s-s5-5-5-6-5-3-5-5-5-5--------------------------| |-3-3-3-3h5h6--------------------------5-5-5-------3-3-3--| |--------------------------------8-8-8-------5-5-5--------|
|----------------------------------------------13~~--| |----------------------------------------------------| |----------------------------------------------------| |----------------------------------------------------| |-3~--PM-PM-PM--3~--PM-PM-PM--3~--PM-PM-PM-----------| |-0~--0--0--0---0~--0--0--0---0~--0--0--0--x-x-------|
|-------------------------------------------------------| |-------------------------------------------------------| |------------------------------------------------t---t--| |----------------------------------------------t-6-t-5--| 4x |----------------------------------------------3---2----| |-0-0-0-00000000-0-0-0-00000000-0-0-0-00000000----------|
|--------------------| |--------------------| |--------------------| |--------------------| 3x |-s----s-----s----s--| |-0--000---000--000--|
|-------------------------| |-------------------------| |-------------------------| |-------------------------| |-s----s-----s----s---5~--| |-0--000---000--000--0~---|
|------------------------------------------------| |------------------------------------------------| |------------------------------------------------| |------------------------------------------------| 2x |---6p3-6/10---10p7-10/11---11p8-11\5---8p5-8\3--| |-0----------0------------0-----------0----------|
|------------------------------------------| |------------------------------------------| |------------------------------------------| |------------------------------------------| |----10h11p10----10h11p10----8h10p8---6-5--| |-12----------15----------10--------8------|
|-----------------------------------------| |-----------------------------------------| |-----------------------------------------| |-----------------------------------------| |----10h11p10----10h11p10----8b9b8---6-5--| |-12----------15----------10-------8------|
|----------------------------------------| |----------------------------------------| |----------------------------------------| |----------------------------------------| |----10h11p10----6-8-10----8h10p8---6-5--| |-12----------15--------10--------8------|
|---------------------------------------------| |---------------------------------------------| |---------------------------------------------| |---------------------------------------------| |----10h11p10----10h11p10----8b9b8---6-5-3~~--| |-12----------15----------10-------8-----0~~--|
|----------------------------------| |----------------------------------| |----------------------------------| |----------------------------------| 4x |-----3-----1-3p0-----3-----3-1p0--| |-0-0---0-0-------0-0---0-0--------|
|-----------------| |-----------------| |-----------------| |-----------------| 2x |-3-----2---------| |---000---00--00--|
|-------------------| |-------------------| |-------------------| |-------------------| 3x |-3-----2-----------| |---000---00000000--|
|-------------------| |-------------------| |-------------------| (this part is a little hard to hear, but if you listen |-3-----------------| closley you'll find it) |-------2-----------| |---000---000-0000--|
|---------------------| |---------------------| |---------------------| |---------------------| 3x |-3-----2----3-6p5-2--| |---000---00----------|
|----------------------| |----------------------| |----------------------| |----------------------| |-3-----2----3-6p5-2~--| |---000---00-----------|
|-------------------| |-------------------| |-------------------| |-------------------| 8x |-3-------2---------| |---0-0-0---00--00--|
Bass Solo
|------------------------------------------| |------------------------------------------| |------------------------------------------| |---------------------------------t--t--t--| 2x |-0h3p0h3p0h3p0h3p0h3p0h3p0h3p0h3-2--6--5--| (hammer on and pull off part is |------------------------------------------| really really fast)
|-------------| |-------------| |-------------| |-t--t--t--t--| 2x |-3--2--6--5--| |-------------|
|---------------------------------------13~~--| |---------------------------------------------| |---------------------------------------------| |---------------------------------------------| |-------s---------s---------s---------s-------| |-00-00-0---00-00-0---00-00-0---00-00-0-------|
|--------------------------------------------------| |--------------------------------------------------| |--------------------------------------------------| |--------------------------------------------------| 4x |---------0h6p0h6p0h6p0h6-----0h5p0h5-----0h4p0h4--| |-0-0-0-0-----------------0-0---------0-0----------|
|-------------------------------------------------| |-------------------------------------------------| |-------------------------------------------------| |-------t-t-------t-t-------t-t--PM-PM-6-PM-PM-5--| 2x |-------6-3-------5-2-------6-3--3--3----3--3-----| |-0-0-0-----0-0-0-----0-0-0-----------------------|
|-------------------------| |-------------------------| |------------------t---t--| |----------------t-6-t-5--| 4x |----------------3---2----| |-0-0-0-00000000----------|
|-------------------------------------------------------------| |-------------------------------------------------------------| |-------------------------------------------------------------| |-------------------------------------------------------------| 2x |--------------0h6p0h6p0h6p0h6---------------0h5p0h5p0h5p0h5--| |-0--000---0000----------------0--000---0000------------------|
|--------------------------| |--------------------------| |--------------------------| |-1~/5~--0~~---1~/5~--6~~--| |-3~/6~--1~~---3~/6~--8~~--| |--------------------------|
|----------------------------------------------------------| |----------------------------------------------------------| |----------------------------------------------------------| |-1~----------5~----------0~~--3~----------5~----------6~--| |-3~-PM-PM-PM-6~-PM-PM-PM-1~~--1~-PM-PM-PM-6~-PM-PM-PM-8~--| |----0--0--0-----0--0--0----------0--0--0-----0--0--0------|
|------------------------------------------------| |------------------------------------------------| |------------------------------------------------| |-1---------------------------0------------------| |-3-----------------6-5-6-5-3-1------------------| |---0-0-0-0-0-0-0-0-------------0-0-0-0-0-0-0-0--|
| | |------------------------------------------------| |------------------------------------------------| |------------------------------------------------| |------------------------------------------------| |-6-5-6-5-3-6-----------8------------3/6-5-1-3~--| |-----------8-0-0-0-0-0-10-0-0-0-0-0-------------|
|----------------------------------------------------| |----------------------------------------------------| |----------------------------------------------------| |-1---------------------------0----------------------| |-3-----------------6-5-6-5-3-1----------------------| |---0-0-0-0-0-0-0-0-------------0-0-0-0-0-0-0-0------|
| | |----------------------------------------------------| |----------------------------------------------------| |----------------------------------------------------| |----------------------------------------------------| |---------------6-----------8------------3/6-5-1-3~--| |-12-11-12-11-7-8-0-0-0-0-0-10-0-0-0-0-0-------------|
|------------------------------------------------| |------------------------------------------------| |------------------------------------------------| |-1-------------------------0--------------------| |-3-----------------6-5-6-5-1--------------------| |---0-0-0-0-0-0-0-0-----------0-0-0-0-0-0-0-0----|
| | |------------------------------------------------| |------------------------------------------------| |------------------------------------------------| |-----3-2----------------------------------------| |-2-3-----3-6-----------8------------3/6-5-1-3~--| |-----------8-0-0-0-0-0-10-0-0-0-0-0-------------|
|--------------| |--------------| |--------------| |--------------| 2x |--------------| |-00-00-00-00--|
|----------------------| |----------------------| |----------------------| |----------------------| 4x |----6-8-5-6-3-6p5-2~--| |-00-------------------|
|---------------------| |---------------------| |---------------------| |----5-8-3-5-1-3p2-0--| 4x |---------------------| |-00------------------|
|-----------------| |-----------------| |-----------------| |-----------------| 3x |-----------------| |-0000--000--0-0--|
|---------------------| |---------------------| |---------------------| |---------------------| 4x |----6-8-5-6-3-6-2v~--| |-00------------------|
|---------------------| |---------------------| |---------------------| |----5-8-3-5-1-3------| 4x |----------------5v~--| |-00------------------|
|------------------| |------------------| |------------------| |------------------| 4x |------------------| |-0-0--0000--0-00--|
|-------------------| |-------------------| |-------------------| |-------------------| |-3/8~--6~--1~-3~~--| |-------------------|
Well, I think that's mostly accurate, so enjoy! P.S: There are many parts in this tab where it'll be very hard to understand if you follow along as the song plays
Please rate this tab:
x1.0