Tonight tab with lyrics by Joe Cocker - Easy chords and tabs for guitar

Joe Cocker – Tonight tab



E |-------|-----------------------1L---|B |-------|-----------------------1L---|G |-------|-----------------------2L---|D |-------|-----------------------3L---|A |-------|-----------------------3L---|E |-------|-----------------------1L---|
--1L----------1L-1L----------1--------1--1--1--1----|--1L----------1L-1----------------------------------|--2L----------2L-2----------------------------------|--3L----------3-------------------------------------|--3L----------3-------------------------------------|--1L----------1-------------------------------------|
--0-------------------------------------------------|-----------1-----------------------1-----3--3L------|--------------------2L----------2-------------------|----------------------------------------------------|----------------------------------------------------|----------------------------------------------------|
--------------------------------------5-------------|--3L----------3-------------------------------------|----------------------------------------------------|----------------------------------------------------|----------------------------------------------------|----------------------------------------------------|
--0-------------------------------------------------|-----------1-----------------------------1--3--1----|--------------------2-----------------2-------------|----------------------------------------------------|----------------------------------------------------|----------------------------------------------------|
----------------------------------------------------|----------|-------|--3L----------3-----------------------------1-------|----------|-------|--------------------------------------0--2----------|--3-------|-------|-----------------------------0--3-------------------|----------|-------|--------------------------3-------------------------|----------|-------|----------------------------------------------------|----------|-------|
----------------------------------------------------|-----------------------------------1--3-----1L------|-----------------------0--3-----3-------------------|-----------------1--3-------------------------------|--------------5-------------------------------------|----------------------------------------------------|
----------------------------------------------------|-------|--1-------------------------------------------------|-------|----------------------------------------------------|-------|----------------------------------------------------|-------|----------------------------------------------------|-------|----------------------------------------------------|-------|
----------------------------------------------------|----------------------------------------------------|-----------------------------------------------3L---|----------------------------------------------------|----------------------------------------------------|----------------------------------------------------|
--1L----------1L-------1----------------------------|--4L----------4L-------4L-4-----------4--3--4--6----|--3L----------3-------------------------------------|----------------------------------------------------|----------------------------------------------------|----------------------------------------------------|
----------------------------------------------------|--4--------------------------------------4----------|----------------------------------------------------|----------------------------------------------------|----------------------------------------------------|----------------------------------------------------|
----------------------------------------------------|--3L----------3-----3-------------------------------|--------------------------2-------------------------|-----------------------------------3--------2-------|----------------------------------------------------|----------------------------------------------------|
-----------------------0--1--5--3--1--0-------------|-----------------1--3--------------------3--1--3----|--------------2-------------------------------------|--0-------------------------------------------------|----------------------------------------------------|----------------------------------------------------|
-----1--6L-6--------6-----------6--------6-----6----|--4L-4-----------------4-----6-----6--8-----6-------|-----------7L-7--8----------------------------------|----------------------------------------------------|----------------------------------------------------|----------------------------------------------------|
-----1--6L-6--------6--------1--1--3--3--6--6--8----|--4L-4-----------------4----------------------------|-----------7L-7--8----------------------------------|----------------------------------------------------|----------------------------------------------------|----------------------------------------------------|
--10----------13-12-10-8-----------0--1--0----------|--------------------------10-8--6-----------3--1----|----------------------------------------------------|----------------------------------------------------|----------------------------------------------------|----------------------------------------------------|
--------------1-----3--------3--------3-------------|-------|-----------3----------------------------------------|-------|--3-----3-------------------------------------------|-------|----------------------------------------------------|-------|----------------------------------------------------|-------|----------------------------------------------------|-------|
--------------3--5--5-----------------------1--3----|--1-------------|-------|----------------------------------------------------|----------------|-------|----------------------------------------------------|----------------|-------|----------------------------------------------------|----------------|-------|----------------------------------------------------|----------------|-------|----------------------------------------------------|----------------|-------|
--------------------------------------------1--3----|----------------------------------------------------|----------------------------------------------------|----------------------------------------------------|----------------------------------------------------|----------------------------------------------------|
--5--5--3--5-----3-----------3-----5--3-----1--3----|----------------------------------------------------|----------------------------------------------------|----------------------------------------------------|----------------------------------------------------|----------------------------------------------------|
-----1----------------------------------------------|-------|----------------------------------------------------|-------|----------------------------------------------------|-------|----------------------------------------------------|-------|----------------------------------------------------|-------|----------------------------------------------------|-------|
-----------------------------------------------5----|----------------------------------------------------|----------------------------------------------------|----------------------------------------------------|----------------------------------------------------|----------------------------------------------------|
--8--8-----------------0--3--3--1-----3-----1L------|--------10-8--10-10-8-----------1-------------------|----------------------------------------------------|----------------------------------------------------|----------------------------------------------------|----------------------------------------------------|
--1-------------------------|-------|----------------------------|-------|----------------------------|-------|----------------------------|-------|----------------------------|-------|----------------------------|-------|
--------------------------------------------1--3----|----------------------------------------------------|----------------------------------------------------|----------------------------------------------------|----------------------------------------------------|----------------------------------------------------|
--5--3--5--3--5--------3--5--3--5--3--5--3--1L------|----------------------------------------------------|----------------------------------------------------|----------------------------------------------------|----------------------------------------------------|----------------------------------------------------|
--1-------------------------------------------------|----------------||----------------------------------------------------|----------------||----------------------------------------------------|----------------||----------------------------------------------------|----------------||----------------------------------------------------|----------------||----------------------------------------------------|----------------||
Please rate this tab:
x1.0