Joe Hisaishi – Tonari No Totoro tab ver. 2

Standard E

-8-5---8-----------------------------------------|-----6---11-8--11-8-5--11-10-6-------------------|-------------------------------------------------|-------------------------------------------------|-------------------------------------------------|-------------------------------------------------|
-------------------------------------------------|---------------------------------10~--10~--------|-5-10-9-10-5--5~--5~--5-10-9-10------------------|-------------------------------------------------|-------------------------------------------------|-------------------------------------------------|
-------------------------------------------------|-11-10-8----11-10-8--------8-8--6-8-8------------|---------10---------10--10-----------------------|-------------------------------------------------|-------------------------------------------------|-------------------------------------------------|
-------------------------------------------------|---------------------------------13~--13~--------|-5-10-9-10-5--5~--5~--5-10-9-10------------------|-------------------------------------------------|-------------------------------------------------|-------------------------------------------------|
-------------------------------------------------|-11-11-11-10-8-11-11-10---10-10-10-8----10~------|------------------------12-----------10----------|-------------------------------------------------|-------------------------------------------------|-------------------------------------------------|
-------------------------------------------------|--------------------------13~--------------------|-7-9-10-12-7--7-9-10-12-7------------------------|-------------------------------------------------|-------------------------------------------------|-------------------------------------------------|
--------------7-8-10-----------------------------|-------6-8-10------------------------------------|-5-7-9-------------------------------------------|-------------------------------------------------|-------------------------------------------------|-------------------------------------------------|
-8-5---8-----------------------------------------|-----6---11-6--11-8-5--11-10-6-------------------|-------------------------------------------------|-------------------------------------------------|-------------------------------------------------|-------------------------------------------------|
--10-8-6--------------------6-5---6-5---10-8-----|---------10-11-13---------------6-----6----------|-5----------------10-10--10----------------------|-------------------------------------------------|-------------------------------------------------|-------------------------------------------------|
Please rate this tab:
x1.0