Joe Satriani - Circles tab

              Circles

                                 Joe Satriani
tabed by:Josè Alonso R.G

any comments to: korn_evsnc@hotmail.com

dedicate to my only love OLGAE||------------------|------------------||----------------------------------|B||------------------|------------------||----------------------------------|G||------------------|------------------||*--11----9-----7------------------|D||------------------|------------------||*--9---------------9----7--7-10---|A||------------------|------------------||---------10----9---7--0-----------|E||------------------|------------------||-------0-----0---0------8--8-8--0-|
3x---------------------0--0------||-------------------------------------|---------------------0--0------||-------------------------------------|---------------------9--9-----*||----------------------------5--------|--9----7--7----------9--9-----*||----------12-------------------------|-------5--5/10/9/7-------------||--10-9-10-----10-10---7-5-7----7-----|--7--0--------------------0-0--||--8--8-8---------8--0-5-5-5------0-7-|
--------------------------------|-------------------------------------|--------------------------------|-------------------------------------|--------------------------------|----------------------------5--------|--------9--------------7--------|----------12-------------------------|--5/7------7-----5/7------7-----|--10-9-10-----10-10---7-5-7----7-----|------0------0-7-----7------7-8-|--8--8-8---------8--0-5-5-5------0-0-|
|----------------------------------|---------------------0--0------|||----------------------------------|---------------------0--0------|||*--11----9-----7------------------|---------------------9--9-----*|||*--9---------------9----7--7-10---|--9----7--7----------9--9-----*|||---------10----9---7--0-----------|-------5--5/10/9/7-------------|||-------0-----0---0------8--8-8--0-|--7--0--------------------0-0--||
2x--------------------------------||-----------------0--------|--------------------------------||-----------------0--------|*------------------------------*||-----------------9--------|*--9~---11~--12---9~---9-------*||--9----11---12---9--------|---7~---10~--12---7~---7--------||--7----10---12---7--------|------0---------0----0-----0-0--||-----0---------0----------|
3x 2x--------||------|--------------------|--------------------|--------||------|--15----------------|--------------------|*------*||------|--14b---------------|--------------14b---|*------*||------|--------------------|--------------------|--------||------|--------------------|--------------------|--------||------|--------------------|--------------------|
--12---------------12------------12-------|----------------------------|-----15h12------12----15h12---------15h12-|----------------------------|-----------14~--------------14b-----------|--14b--14r12----12~---------|------------------------------------------|-------------14-------------|------------------------------------------|----------------------------|------------------------------------------|----------------------------|
-------17h15h12h10h17h15h12h10h17h15h12h10h17h15h12h10h17h15h12h|----------------------------------------------------------------|--14h0----------------------------------------------------------|----------------------------------------------------------------|----------------------------------------------------------------|----------------------------------------------------------------|
--10h17h15h12h15h17h15h12h10h17h15h12h15h17h-15h17h15h12h15h17h15-|------------------------------------------------------------------|------------------------------------------------------------------|------------------------------------------------------------------|------------------------------------------------------------------|------------------------------------------------------------------|
--12h15h18h15h12h18/17/18h15h12h18/17/18/17h15h12h18/17/18h15h12h18/17/18h15-|-----------------------------------------------------------------------------|-----------------------------------------------------------------------------|-----------------------------------------------------------------------------|-----------------------------------------------------------------------------|-----------------------------------------------------------------------------|
--12h18/17/19h17h15h12h19h15h17h19h17h15h12h19h17h19h15h12-----20--|-------------------------------------------------------------------|-----------------------------------------------------------x-------|-----------------------------------------------------------x-------|-------------------------------------------------------------------|-------------------------------------------------------------------|
-----20b-----18r---20b---18r-|----20b-18r---20b-18r------|-----------------------------|---------------------------|--0--------------------------|------------------------x--|-----------------------------|------------------------x--|-----------------------------|---------------------------|-----------------------------|---------------------------|
-----------------------|-----------0---------------|------2--2b-----2b-----|--2r-2h0---------0--0--x-x-|--3/2-2--2b-----2b-----|--2b-2h0------------0--x-x-|-----------------------|---------2-----------------|-----------------------|---------------------------|-----------------------|---------------------------|
----------15h10h12h15h12h10h15h10h12h16h12h10-----------------|--x-10h12-------------------------------------15h10h12h15h10h-|--x-----------------------------------------------------------|--------------------------------------------------------------|--------------------------------------------------------------|--------------------------------------------------------------|
----------------------------------------------------------|--12h15h12h10---------------------------------------------|--------------14h9h12h14h11h12h14h12h11-------------11-11h|----------------------------------------14h-11h9/12-------|----------------------------------------------------------|----------------------------------------------------------|
-----------------------------------------------------------|-----------------------------------------------------------|--12h11h9--------------------------------------------------|----------12h9h11h12h9h11h12h11h9--------------------------|----------------------------------14h12h9h10h12h9h10h12h-9-|-----------------------------------------------------------|
------------------------|----------------12-17----------15---|------------------------|-------------13-------------15------|------------------------|--x--------x-------------15---------|--12r-----12b-----12~---|--x----16---------------------------|------------------------|--x---------------------------------|------------------------|------------------------------------|
--------19---------15---------17---------15-----|-----19---------15---------17---------15-----15-|--19---------15---------17---------15-----------|------------------------------------------------|------------------------------------------------|------------------------------------------------|
--12h13h12h10----10-12h10-13h10-12h10----10h12h13h|--------------13----------------------13----------|--------------------------------------------------|--------------------------------------------------|--------------------------------------------------|--------------------------------------------------|
--12h10----10--------------------|--7b-----7---5----------|--------13----12/10h8--8~-----8/-|---------------5h-8h-5--|---------------------------------|------------------------|---------------------------------|------------------------|---------------------------------|------------------------|---------------------------------|------------------------|
----------------------------------|-----------------------|-----5----------------------------|-----------------------|--7b----8--7--5-----5--7--5~-5~---|----5------10----10----|-----------------7----------------|-----------------------|----------------------------------|-----------------------|----------------------------------|-----------------------|
--------------------------|-----------22b---------|--22r-----22~---------|--------------------------|-----------------------|----------------------|--10h0h2~-----2/--12------|-----------------------|----------------------|--------------------------|-----------------------|----------------------|---------------------x----|-----------------------|----------------------|---------------------x----|--0--0--0--------------|----------------------|
--22------22----------19----------17------12------|------19------19/-17------17/-15------12------12/-|--------------------------------------------------|--------------------------------------------------|--------------------------------------------------|--------------------------------------------------|
------10h-0-------------------------------|--------------------------|--10---------12--------10-----------------|--------------------------|-----------------9/-7---------9-----------|--------------------------|---------------------------7-----7/-5-----|--5b-7--7-----5b-7~-7-----|---------------------------------------7--|-----------7-----------3--|------------------------------------------|--------------------------|
----------------------|--x------------10/-12/---5--|--5--3--5--0-----------|----------------------|--x--12b-12r---10/-12/---5--|--5--3--5--0-----------|----------------------|----------------------------|-----------------------|--5b-7--7--5~---------|----------------------------|-----------------------|----------------------|----------------------------|-----------------------|----------------------|----------------------------|------------------3/---|
--------17b-----------|--17r-----17~---------|--17--------19b-------19b-|----------------------|----------------------|--------------------------|--2h-0----------------|----------------------|--------------------------|----------------------|----------------------|--------------------------|----------------------|----------------------|--------------------------|----------------------|----------------------|------2/-3----------------|
--19~-----17--15----17----17b---|--17r-17--x--------------------|--------------------------------|----------x--12~---12--16--12--|--------------------------------|-------------------------------|--------------------------------|-------------------------------|--------------------------------|-------------------------------|--------------------------------|-------------------------------|
--------------------------|--------19b-------19~-|--16--16b---16~-----------|----------------------|--------------------14r---|----------------------|--------------------------|----------------------|--------------------------|----------------------|--------------------------|----------------------|
----------17----15----17----17b---|--17r---x---------------|----------------------------------|------------------------|----------------------------------|------------------------|----------------------------------|------------------------|----------------------------------|------------------6-----|----------------------------------|-----------7---------7--|
---------------------|---------19~---------|---------------------|------x--------------|---------------------|------x--------------|---------------------|---------------------|--6b-----6-----------|---------------------|----------------5r---|---------------------|
--19~-------17----15----17----17b---|--17r---17/---17--------|------------------------------------|------------------------|------------------------------------|------------------------|------------------------------------|------------------------|------------------------------------|------------------------|------------------------------------|------------------------|
3x--17------------------|-----------------------|------------------||-----|-----||------------12--------|--x--------------------|------------------||-----|-----||----------------------|-------4/-5--0----4----|------------------||*----|----*||----------------------|-----------------------|------------------||*----|----*||----------------------|-----------------------|------------------||-----|-----||----------------------|-----------------------|------------------||-----|-----||
2x------||----|----|----|----|----|----|----|----|----|----|----|----||------||----|----|----|----|----|----|----|----|----|----|----|----||*----*||----|----|----|----|----|----|----|----|----|----|----|----||*----*||----|----|----|----|----|----|----|----|----|----|----|----||------||----|----|----|----|----|----|----|----|----|----|----|----||------||----|----|----|----|----|----|----|----|----|----|----|----||
|----------------------------------||----------------------------------||*--11----9-----7------------------||*--9---------------9----7--7-10---||---------10----9---7--0-----------||-------0-----0---0------8--8-8--0-|
3x 2x---------------------0--0------||-----------------------------------||---------------------0--0------||-----------------------------------||---------------------9--9-----*||*---------------------9-----------*||--9----7--7----------9--9-----*||*--9----7--7--------9-----7~-10h7-*||-------5--5/10/9/7-------------||--------5--5/10-9-7----------------||--7--0--------------------0-0--||---7--5-----------------8----------||
---------------------------------|------------------0--0------|---------------------------------|------------------0--0------|---------------------------------|------------------9--9------|--9----7--7--------------9-------|--9-------9-------9--9------|-------5--5/10-9-7-------7-------|--7-------7-------7--7------|--7--5-------------0-0-0---0-0-0-|----0-0-0---0-0-0-0--0------|
--0----0----0----0----|--0----0----0----0----|--0----0----0----0----|--0----0----0----0----|--0----0----0----0----|--0----0----0----0----|--9----9----9----9----|--9----9----9----9----|--9----9----9----9----|--9----9----9----9----|--9----9----9----9----|--9----9----9----9----|--7----7----7----7----|--7----7----7----7----|--7----7----7----7----|--0----0----0----0----|--0----0----0----0----|--0----0----0----0----|
Tap to rate this tab
 
# A B C D E F G H I J K L M N O P Q R S T U V W X Y Z