Joe Satriani - Satch Boogie tab

  SATCH BOOGIE
                           As recorded by Joe Satriani
                  (From the 1988 Album SURFING WITH THE ALIEN)

Music by Joe Satriani


          A5                   C5
      x 0 2 x x x          x 3 5 x x x

                Intro
  Uptempo shuffle Q=224(8=s8)
             $
 4/4
  Gtr I
                       ~~~~~~       ~
|------------||-------------------|------------------|------------------||------------||o------------------|------------------|------------------||------------||-------------------|------2-(2)p0-----|---2-----0--------||------------||-------------------|------------------|-------4---0------||------0-3p0-||o-5p0----------3h5-|-5--0---------3p0-|-4---5------------||------------||------3-5-(5)------|------------------|-------------2p0--|
~~~~~~ ~~~~~~|--------------------||-----------------||-------------------o||-----------------||--------------------||-----------------||--------------------||-----------------||-3p0---------0-3p0-o||-5p0----------3--||-----3-5-(5)--------||-----3-2-(2)-----|
3/4 ~~~~~~|---------------------|--------------------|-----------------||---------------------|--------------------|-----------------||-----5p=4------------|--------------------|---------------x-||-----4-(4)-(4)p0-----|--------------------|---------2-(2)-x-||-5p0-------------5p0-|-7p0----------5-(0)-|-7p0-----------x-||---------------------|-----5-4-(4)--------|-----3p0---------|
4/4 ~~~~~~~|------------------|-------------------||------------------|-------------------||-13-12-11-10--9-8-|-7---(7)-(7)-------||-12-11-10--9--8-7-|-6---(6)-(6)-------||-14-13-12-11-10-9-|-8---(8)-(8)-0-3p0-||------------------|-------------------|
~~~~~~ ~|------------------|------------------|----------------||------------------|------------------|----------------||------------------|------2-(2)p0-----|---2p=0---5p=0--||------------------|------------------|----------------||-5-0----------3h5-|-5--0---------3p0-|-4------5-------||-----3-5-(5)------|------------------|----------------|
~~~~~~|--------------------|-----9s8--7-----|-9--8s7-(7)-------||--------------------|-----9s8--7-----|-9--8s7-(7)-------||--------8-7-(7)-----|----------------|-9--8s7-(7)-------||---7h10-------------|----------------|------------------||-9------------------|----------------|------------0-3p0-||-----------------0--|-(0)---------0--|------------------|
~~~~~~ ~~|------------------|--------------------||------------------|--------------------||------------------|------2-(2)p0-------||------------------|--------------------||-5p0----------3p0-|-5p=0---------3p0---||-----3-5-(5)------|--------------------|
~~~~~~~~~~~~~~~~|-----------------|---------|------------||-----------------|---------|------------||---2-----0-------|---------|------------||-------4---0-----|---------|------------||-4---5-----------|-3p0-----|------------||-------------2p0-|-----3-5-|-(5)--------|
~~~~~|---------------------|---------------|------------------|||---------------------|---------------|--------------5---|||---------------------|---------------|--------------5---|||---------------<14>--|-(<14>)--------|-(<14>)-----------|||---------------------|---------------|------------------|||-(5)------(5)/-------|---------------|------------------||
Solo A5 C A D A A5 Gtr II Gtr I Gtr IV |
~~~~~~ ~|------------|----------------|--------------------||-(5)--------|-5-5------------|--------------------||-(5)--------|-5-5------------|-[5]----------------||------------|-----7p5-5-x-7--|-----5-7-7-(7)--5-7-||------------|----------------|--------------------||------------|----------------|--------------------|
C AG A A5 C A D A
~~~|----------------|-------------5---8---5-7p|=5---5---------5-||--------------8-|-(8)b9==(8)r---7---7-----|---8-----8-------||--------x\------|-------------------------|-------5---8p7---||-(7)----x\--5---|-------------------------|-----------------||--------x\------|-------------------------|-----------------||----------------|-------------------------|-----------------|
A5 E A D#A D AC A A5
~~~~~~|----------------------------|--------------------|----------------------||-8p5------5---------------5-|-(5)----------------|----------------------||------7b9---8--7-5--------5-|-(5)p0-5------------|----------------------||-------------------7--5-0---|---------7-(7)------|----------------------||----------------------------|----------------3p0-|-3b4--5b6--3b4--5b6p0-||----------------------------|--------------------|----------------------|
C A D A A5 C A C A G A
Gtr III ~~~~~~~~ ~ ~~~~~~|------------------|-----------------|-------------------------||------------------|-----------------|-------------------------||----------------5-|-(5)-------------|-5---5------------x-7b9==||------------------|------7-5-7-5-7--|-5-0-5-7-(7)-(7)/-x------||-3b4--5p0-3p0-3---|-----------------|------------------x------||------------------|-----------------|-------------------------|
A5 C AD A A5
~~|--------5-------5-------|-5-8b10---(8)--8b9--|-5h8-5------------||------5-------5-------5-|---8b10---(8)-------|-------(8)-8------||-(7)r-----7b9-----7b9---|--------------------|-------------5p=0-||------------------------|--------------------|------------------||------------------------|--------------------|------------------||------------------------|--------------------|------------------|
Gtr I ~~~~~~|--------------------14b15==|=(14)r==(14)b15====(14)r---14b16==(14)-||---------------------------|---------------------------------------||--------------(11)\--------|---------------------------------------||-5p0-----------------------|---------------------------------------||-----3---------------------|---------------------------------------||-------5-(5)---------------|---------------------------------------|
|
| Gtr II| PM---------------------------------||---------------------------|-----------------------------------------||---------------------------|-----------------------------------------||---------------------------|------5---5----------5---2---------------||-2-2-----------------0-----|--(0)------------0------------------0----||-0-0-2p0--3p0---4----------|----------------------------3------------||---------------------------|-----------------------------------------|
~~~~~|-(14)r---12-----------------|-------------------------|-----------------------||------------13--------------|-------------------------|-----------------------||---------------14--12s11----|-12----------------------|---------------[9]b11==||-------------------------12-|-----12s10----12p(9)-9p0-|-7p0-4p0h4p0-----------||----------------------------|-----------12------------|-----------------------||----------------------------|-------------------------|-----------------------|
|
|----------------------------|-------------------------|-----------------------||----------------------------|-------------------------|-----------------------||---5---5--2--5-(5)--2-----7-|-(7)--5--5-----5--4------|-5---4---2---4---------||-----------------------0----|------------0--------0-0-|---0---0---0----0------||----------------------------|-------------------------|-----------------------||----------------------------|-------------------------|-----------------------|
~~~ ~~~~~~~|------------------------|---------------------------------||------------------------|-------------------------/15p(0)-||-(9)r===(9)-(9)---------|-[9]b11====(9)r(9)-(9)-----------||------------------------|---------------------------------||------------------------|---------------------------------||------------------------|---------------------------------|
|
|------------------------|---------------------------------||------------------------|---------------------------------||-----5-------5--2-------|--5-------------5--(5)-2---------||-(0)-----0------------0-|---------0--0--------------0--0--||------------------(3)---|---------------------------------||------------------------|---------------------------------|
F#5 Gtr III ~~~~~~~|-----------------|-----------------------||-----------------|-----------------------||-----------------|-----------------------||-5p0-4p0---------|-----------------------||---------5p0-3p0-|-3p0-3-5-(5)s=(15)-----||-----------------|-------------------17s=|
|
|-----------------|-----------------------||-----------------|-----------------------||-----5-2-5-2-----|-----------------------||-0-0-------------|----------------x\-----||-------------5-4-|-3-0-3-0-(0)----x\-----||-----------------|----------------x\--2--|
A5 B5|---------------------------|----------------------------------||---------------------------|----------------------------------||---------------------------|-----------------/6b7==(6)r(6)\---||---------------------------|---4---6-7-x---6------------------||---------------4h5h6p5-5h6h|=7--------------------------------||-(8)s==2-4h5h7-------------|----------------------------------|
|
|---------------------------|----------------------------------||---------------------------|----------------------------------||---------------------------|------------------2---------4-----||-----4-4-----4-4-----------|-4---4-------4----2---------4-----||-----4-4-----4-4-----------|-4---4-------4----0---------2-----||-(2)-----2---------2---2---|---------2----------------------0-|
F#5 A5 B5F#5
~~~|--------------------------|----------------------||--------------------------|---------------x------||---[5]-----(5)---(5)--(5)-|-(5)-------(5)-x------||--------------------------|---------------x-7s4--||--------------------------|----------------------||--------------------------|-----------------5s2--|
|
|--------------------------|----------------------||--------------------------|----------------------||--------------------------|------------2----4----||----4-------4-------------|--4----4-4--2----4----||----4-------4-------------|--4----4-4--0----2----||-2-------2--------2----2--|-----2-------------2--|
A5 B5F#5 Gtr IV|---------------------2---|-5---2-5p2---------||-----5-----(5)b5.5-2---2-|---5-------2-5-----||-------------------------|---------------4b6r||--4----------------------|-------------------||-------------------------|-------------------||--2----------------------|-------------------|
|
|-------------------------|-------------------||-------------------------|-------------------||-------------------------|---------2-2-4-----||-----4------4------------|-4---4-4-2-2-4-----||-----4------4------------|-4---4-4-0-0-2-----||-(2)---2-2---------2-2-2-|---2-----------2---|
~~~|------------------------------|-------9\-----------------|||------------------------------|------------------------8-|||-(4)p2---2-(2)p(0)-[4]-[4]pb5r|=(4)--------x-x---x-------|||-------4----------------------|------------x-x---x-------|||------------------------------|------------x-x---x-------|||------------------------------|--------------------15\---||
|
|------------------------------|--------------------------|||------------------------------|--------------------------|||------------------------------|--------------------------|||-----4------4-----------------|-----4------------------2-|||-----4------4-----------------|-----4------------------0-|||-(2)---2-2------2---2---2-----|--2----2--2-3---x----4----||
Solo 2 A5 C A D A Gtr II
Gtr I|-----5---5---5---5-|---5-------5-----||-(8)---8---8---8---|-8---8p7-7---7-7-||-------------------|-----------------||-------------------|-----------------||-------------------|-----------------||-------------------|-----------------|
A5 C A G A
|-5----------5----------|-5----------5-------||-5-7b8r(7)--5-7b8r(7)--|-5-7b8r(7)----7---5-||---7b8r(7)----7b8r(7)--|---7b8r(7)------7---||-----------------------|--------------------||-----------------------|--------------------||-----------------------|--------------------|
A5 C A D A
|-5-------5-------5------|----------------------------||-------5-------5--------|----------------------------||---7b9-----7b9-----7b9==|=(7)r(7)--5-7p0-5b5.5-------||------------------------|----------------------7-5---||------------------------|--------------------------4-||------------------------|----------------------------|
A5 E A DA DAC A
~~~~ T|-----------------|---------------------------------||-----------------|------------------x\-------------||-----------------|------------------x\---------14--||-----------------|-5b7r(5)b7==(5)r--x\-------------||-5p0-7p0-5p0-3p0-|---------------------------------||-----------------|-----------------------/(10)-----|
A5
T T T T T|----------------------------------------------||----------------------------------------------||-12tr14----12p-14p11--14p11-14p11-14p11-14p11s||----------------------------------------------||----------------------------------------------||----------------------------------------------|
C A D A A5
T T T T T T T T T T T T T T T T ~|----------------------------------------------------------------|---------------------------------------------||----------------------------------------------------------------|---------------------------------------------||-9-14p9-14p9-14p11-14p11--14p11-14p12-14p=12-14p12-14p11--14p11-|-14p9-14p9-14p7-14p7-14p=7-14p9-14p9--7-5----||----------------------------------------------------------------|---------------------------------------------||----------------------------------------------------------------|---------------------------------------------||----------------------------------------------------------------|---------------------------------------------|
C AC AGA A5
\1/ \1/|------------------|-----------------------||------------------|-----------------------||-(5)--x-----------|--<5>---(5)--(5)--(5)--||------x-----------|-----------------------||------------------|-----------------------||---------(12)\----|-----------------------|
C A D A
|-----------------------------|------------------||-----------------------------|------------------||-(5)--(5)--(5)--(5)-0-x-<5>--|-(5)----x-x-------||----------------------x------|--------x-x---0---||----------------------x------|--------x-x-0-0---||-----------------------------|------------0-----|
\7|---------------------|---------------------||---------------------|-----5-----(5)---8-8-||-----------------(0)-|-----5-----(5)---7-7-||-(0)-----------x-(0)-|-------------------0-||-(0)-----------x-----|---------------------||---------------------|---------------------|
|
| Gtr II| PM----------------||---------------------|-----------------------||---------------------|-----------------------||---------------------|-----5-5----5--2-------||--2--2------------0--|-(0)-----0---------0---||--0--0-2p0-3p0-4-----|-----------------3-----||---------------------|-----------------------|
|-------------(12)---8-8-|-(8)---10-10-(10)---12-12-||-(8)---10-10--12--------|--------------------------||-(7)----9--9---9----9-9-|-(9)---11-11-(11)---12-12-||-(0)--------------------|--------------------------||------------------------|--------------------------||------------------------|--------------------------|
|
|------------------------|--------------------------||------------------------|--------------------------||--5--5--2--5--(5)-2---7-|-(7)-5--5------5--4-------||--------------------0---|-----------0---------0--0-||------------------------|--------------------------||------------------------|--------------------------|
|-(12)------14-(14)\-----14-|-14--14---14-14-----15-15---15-15--------||--------------------x-x----|-----------------------------------------||-(12)---14----------x-x-14-|-14--14---14-14-/16-16-16---16-16--12h17-||--------------------x------|-----------------------------------------||---------------------------|-----------------------------------------||---------------------------|-----------------------------------------|
|
|---------------------------|-----------------------------------------||---------------------------|-----------------------------------------||---5-----4------2-----4----|--------5------------5----2--------------||------0-----0-------0----0-|-(0)--------------0--------------------0-||---------------------------|-------------------------------(3)-------||---------------------------|-----------------------------------------|
~~~~~~~~~~~~~~|-17-17---17-17-20-19--19---19-------|--------------20-----20-||------------------------------19----|------19h20---20-----20-||-17-17---17-17----19--19---19----19-|-(19)-------------------||------------------------------------|------------------------||------------------------------------|------------------------||------------------------------------|------------------------|
|
|------------------------------------|------------------------||------------------------------------|------------------------||--5-------------5-(5)----2----------|----------5-2--5-2------||-------0-----0-----------------0--0-|---0---0----------------||------------------------------------|-------------------5--4-||------------------------------------|------------------------|
F#5 Gtr IV ~~~~|-(20)---x\-----------19b21==|=(19)r==(19)-19pb21-(19)-----21b24==||-(20)---x\----x\------------|------------------------------------||--------x\----x\------------|------------------------------------||--------------x\------------|------------------------------------||----------------------------|------------------------------------||----------------------------|------------------------------------|
|
|----------------------------|------------------------------------||----------------------------|------------------------------------||----------------------------|------------------------------------||------------------x\--------|------4---4-----------4--4----------||---3--0-3--0-(0)--x\--------|------4---4-----------4--4----------||------------------x\--2-----|--(2)---------2------------2--2-----|
A5 B5 F#5 ~~~~~ ~~|-(21)r==(21)-21pb24==(21)r--------|----------------14----17----------||----------------------------x\-17-|-(17)b18==(17)r----14-------------||----------------------------x\----|-------------------------14---(0)-||----------------------------x\----|----------------------------------||----------------------------------|----------------------------------||----------------------------------|----------------------------------|
|
|----------------------------------|----------------------------------||----------------------------------|----------------------------------||-----------------------2----4-----|----------------------------------||---4--4-------4--------2----4-----|------------4----------4----------||---4--4-------4--------0----2-----|------------4----------4----------||----------2---------------------0-|---2----------------2-------2--2--|
A5 B5F#5 ~~~~~~~ ~~~~|----------------------------|---------------------2---||----------------------------|-----------------------2-||------------------------x---|-4b6======(4)-(4)r-------||-14p12------------------x-x-|-------------------------||-------14-12-(12)-(12)\-x-x-|-------------------------||--------------------------x-|-------------------------|
|
|----------------------------|-------------------------||----------------------------|-------------------------||---------------2--------4---|-------------------------||--4-----4--4---2--------4---|------4--------4---------||--4-----4--4---0--------2---|------4--------4---------||-----2--------------------2-|-2------2--2-------2-2-2-|
A5 B5 F#5 ~~~ ~|-----------2-----------------|----------------------------||-5-----------5p==2-----2---2-|----------------------------||---4b6-------------4b5-------|--4p=2----------------------||-----------------------------|---------4-2----------------||-----------------------------|---------------4p2p==0-0----||-----------------------------|-------------------------2--|
|
|-----------------------------|----------------------------||-----------------------------|----------------------------||-----------2---2---4---------|----------------------------||-4-----4-4-2---2---4---------|-------4-------4------------||-4-----4-4-0---0---2---------|-------4-------4------------||---2---------------------2---|-(2)-------2-2-----2---2-2--|
A5 Gtr II
~~~ ~~~~~~~~~~~~~~~~~~~~~~~~~~~~~~~~~~~~~~~~~~~~|-----------------------|------------|------------|-------------|---------|||-----------------------|------------|------------|-------------|---------|||-------------------5---|------------|------------|-------------|---------|||---------------------7-|-(7)--------|-(7)--------|--(7)--------|--(7)----|||-----------------------|------------|------------|-------------|---------|||-(2)-----/17-17\-0-----|------------|------------|-------------|---------||
|
| \7|-----------------------|------------|------------|-------------|---------|||-----------------------|------------|------------|-------------|---------|||-----------------------|------------|------------|-<14>--------|-(14)----|||-----4---------------2-|------------|------------|-------------|---------|||-----4---------------0-|------------|------------|-------------|---------|||--2----2---2--3--x-4---|------------|------------|-------------|---------||
Solo 3 Gtr IV T T T T T|----------------------------------------|-------------------------------||----------------------------------------|-------------------------------||----------------------------------------|-------------------------------||----------------------------------------|-------------------------------||-12p7p6p0h6h7-12p7p6p0h6h7-12p7p6p0h(6)h|=7p6h7p6h7-12p7p6p0h6h7-12p6p0-||----------------------------------------|-------------------------------|
T T T|-------------------------------------------||-------------------------------------------||-------------------------------------------||-------------------------------------------||-15p12p9p0h9h12-15p12p9p0h9h12-15p9p0h12p9-||-------------------------------------------|
T T T T T T|---------------------------------------|----------------------------------------||---------------------------------------|----------------------------------------||---------------------------------------|----------------------------------------||---------------------------------------|----------------------------------------||-15p12p9h12p9h12-15p12p9p0h9h12-15p9p0-|-17p10p8p0h8h10-17p8p0h8h10-17p8p0h8h10-||---------------------------------------|----------------------------------------|
T T T T|-----------------------------------------||-----------------------------------------||-----------------------------------------||-----------------------------------------||-17p10-15p10p0h8h10-17p8p0h8h10-17p8p0---||-----------------------------------------|
T T T T T T|------------------------------------|----------------------------------------||------------------------------------|----------------------------------------||------------------------------------|----------------------------------------||------------------------------------|----------------------------------------||-12p7p5p0h6h8-13p8p6p0h7h9-14p7p0h7-|-15p10p8p0h8h10-14p7p0h6h8-13p8p7p0h(6)-||------------------------------------|----------------------------------------|
T T T|------------------------------------------||------------------------------------------||------------------------------------------||------------------------------------------||-12p7p6p0h6h7-12p7p6p0h6h7-12p7p6p0h6h7---||------------------------------------------|
T T T T T T|------------------------------------|-------------------------------------------||------------------------------------|-------------------------------------------||------------------------------------|-------------------------------------------||------------------------------------|-------------------------------------------||-12p7p6p0h6h7-12p7p6p0h6h7-12p6p0h9-|-15p12p9p0h9h12-15p12p9p0h9h12-15p12p9p0h9-||------------------------------------|-------------------------------------------|
T T T|---------------------------------------------||---------------------------------------------||---------------------------------------------||---------------------------------------------||-15p12p9p0h9h12-15p12p9p0h9h12-15p12p9p0h8---||---------------------------------------------|
T T T T T T|-------------------------------------------|------------------------------------------||-------------------------------------------|------------------------------------------||-------------------------------------------|------------------------------------------||-------------------------------------------|------------------------------------------||-17p10p8p0h8h10-17p10p8p0h8h10-17p10p8p0h8-|-17p10p8p0h8h10-17p10p8p0h8h10-17p8p0h(9)-||-------------------------------------------|------------------------------------------|
T T T|-----------------------------------------------||-----------------------------------------------||-----------------------------------------------||-----------------------------------------------||-16p11p9p0h9h11-16p11p9p0h9h11-16p11p9p0h9h11--||-----------------------------------------------|
T T T T T T|----------------------------------------|--------------------------------------------||----------------------------------------|--------------------------------------------||----------------------------------------|--------------------------------------------||----------------------------------------|--------------------------------------------||-16p11p9p0h9h11-16p11p9p0h9h11-16p9p0h8-|-15p10-15p0h8h10-15p10p8p0h8h10-15p10p8p0h8-||----------------------------------------|--------------------------------------------|
T T T|-------------------------------------------||-------------------------------------------||-------------------------------------------||-------------------------------------------||-15p10p8p0h8h10-15p10p8p0h8h10-15p8p0h5----||-------------------------------------------|
T T T T T T|--------------------------------------|--------------------------------------||--------------------------------------|--------------------------------------||--------------------------------------|--------------------------------------||--------------------------------------|--------------------------------------||-14p8p5p0h5h8-14p8p5p0h5h8-14p8p5p0h5-|-14p8p5p0h5h8-14p5-(5)p0h5h8-14p5-0-7-||--------------------------------------|--------------------------------------|
T T T|----------------------------------------||----------------------------------------||----------------------------------------||----------------------------------------||-11p8p7p0h7h8-11p8p7p0h7h8-11p8p7p0h7---||----------------------------------------|
T T T T T T|------------------------------------|---------------------------------------------------||------------------------------------|---------------------------------------------------||------------------------------------|---------------------------------------------------||------------------------------------|---------------------------------------------------||-11p8p7p0h7h8-11p7p0h7h8-11p8p7p0h7-|-17p12p10p0h10h12-17p(12)p10p0h10h12-17p12p10p0h10-||------------------------------------|---------------------------------------------------|
T T T|-------------------------------------------||-------------------------------------------||-------------------------------------------||-------------------------------------------||-17p12p10p0h10h12-17p12p10p0h10h12-17p10p0-||-------------------------------------------|
T T T T T T|-------------------------------------------------|-------------------------------------------------||-------------------------------------------------|-------------------------------------------------||-------------------------------------------------|-------------------------------------------------||-------------------------------------------------|-------------------------------------------------||-16p12p11p0h11h12-16p12p11p0h11h12-16p12p11p0h11-|-16p12p11p0h11h12-16p12p11p0h11h12-16p12p11p0h10-||-------------------------------------------------|-------------------------------------------------|
T T T|--------------------------------------------------||--------------------------------------------------||--------------------------------------------------||--------------------------------------------------||-17p12p10p0h10h12-17p12p10p0h10h12-17p12p10p0h10--||--------------------------------------------------|
T T T T T T|----------------------------------------------|-------------------------------------------------||----------------------------------------------|-------------------------------------------------||----------------------------------------------|-------------------------------------------------||----------------------------------------------|-------------------------------------------------||-17p12p10p0h10h12-17p12p10p0h10h12-17p10p0h12-|-16p12p11p0h11h12-16p12p11p0h11h12-16p12p11p0h11-||----------------------------------------------|-------------------------------------------------|
T T T|-------------------------------------------------||-------------------------------------------------||-------------------------------------------------||-------------------------------------------------||-16p12p11p0h11h12-16p12p11p0h11h12-16p11p0h10----||-------------------------------------------------|
T T T T T T|-------------------------------------------------|----------------------------------------------||-------------------------------------------------|----------------------------------------------||-------------------------------------------------|----------------------------------------------||-------------------------------------------------|----------------------------------------------||-17p12p10p0h10h12-17p12p10p0h10h12-17p12p10p0h10-|-19p12p10p0h10h12-17p12p10p0h10h12-17p10p0h12-||-------------------------------------------------|----------------------------------------------|
T T T|---------------------------------------------------||---------------------------------------------------||---------------------------------------------------||---------------------------------------------------||-16p12p11p0h11h12-16p12p11p0h11h12-16p12p11p0h11---||---------------------------------------------------|
T T T T T T|----------------------------------------------|-------------------------------------------------||----------------------------------------------|-------------------------------------------------||----------------------------------------------|-------------------------------------------------||----------------------------------------------|-------------------------------------------------||-18p12p11p0h11h12-16p12p11p0h11h12-16p11p0h10-|-17p12p10p0h10h12-17p12p10p0h10h12-17p12p10p0h10-||----------------------------------------------|-------------------------------------------------|
T T T|---------------------------------------------------||---------------------------------------------------||---------------------------------------------------||---------------------------------------------------||-17p12p10p0h10h12-17p=10p0h10h12-17p12p10p0h10h12--||---------------------------------------------------|
T T T|----------------------------------------------||----------------------------------------------||----------------------------------------------||----------------------------------------------||-16p12p10p0h10h12-16p12p10p0h10h12-16p12p10p0-||----------------------------------------------|
\7 T ~~~~~~~~~~~~~|-----------------|-----------------|---------------||-----------------|-----------------|---------------||-----------------|-----------------|---------------||-----------------|-----------------|---------------||-16p12-(12)------|-(12)----(12)----|-(12)----------||-----------------|-----------------|------------0--|
|--------------------|-----------------------|||--------------------|-----------------------|||--------------------|-----------------------|||--------------------|-x---------------------|||--------------------|-x-----0-3p0-----------|||-(0)----------------|-x---------------------||
& A13 2/4 4/4|---------|----------|---------5--||---------|----------|---------7--||---------|----------|---------6--||---------|----------|---------5--||-3p0-----|----------|---------0--||-----3-5-|-----5----|-5---5------|
|
| Gtr III|---------|----------|------------||---------|----------|------------||---------|----------|------------||---------|----------|------------||---------|----------|------------||---------|----------|------------|
~~~|-(5)------------------------|---------------------*||-(7)------------------------|---------------------*||-(6)----<2>-----(2)----(2)--|-(2)------------x----*||-(5)------------------------|----------------x----*||-(0)------------------------|----------------x----*||----------------------------|---------------------*|
|
| \1 /1.5__________\7|----------------------------|---------------------*||----------------------------|---------------------*||--------<2>-----(2)---------|-(2)-(2)---(2)--x----*||----------------------------|----------------x----*||----------------------------|----------------x----*||----------------------------|---------------------*|
Tap to rate this tab
 
# A B C D E F G H I J K L M N O P Q R S T U V W X Y Z