Joe Satriani – Is There Love In Space tab

-------------------------------------------------------------------------------
		   Is There Love In Space? - Joe Satriani
-------------------------------------------------------------------------------
Tabbed by: Grant Smith
Email: Bulletproof__cupid@hotmail.com

Tuning: Standard

| /  slide up
| \  slide down
| h  hammer-on
| p  pull-off
| ~  vibrato
| +  harmonic
| x  Mute note
| ^  Bend

Intro: 0.10e|-------------|-------------|-------------|-------------|B|-------------|-------------|-------------|-------------|G|-------------|-------------|-------5--5~-|-------------|D|----5-----4~-|-------5--5~-|----3--------|-------5--6~-|A|-3-----3-----|----3--------|-1-----------|----3--------|E|-------------|-1-----------|-------------|-1-----------|
e|-------------|-------------|-------------|-------------|B|-------------|-------------|-------------|-------------|G|-------------|-------------|-------5--5~-|-------------|D|----5-----4~-|-------5--5~-|----3--------|-------5--6~-|A|-3-----3-----|----3--------|-1-----------|----3--------|E|-------------|-1-----------|-------------|-1-----------|
Lead: Lead Guitar
E||------|------|------|------|------|------|------|------|B||------|------|------|------|------|------|------|------|G||------|------|------|------|------|------|------|------|D||------|------|------|------|------|------|------|------|A||------|------|------|------|------|------|------|------|E||------|------|------|------|------|------|------|------|
-------------------------|--------------|-------------------------|------------|-------------------------|--------------|-------------------------|------------|-------------------------|--------------|-------------------------|------------|----------10s---10s-8----|----10--------|----------13--12----10-8-|--10--------|-------------------------|--------------|-------------------------|------------|-------------------------|--------------|-------------------------|------------|
-----------------------|---------------|------------------------|-----------------------|---------------|------------------------|-----------------------|---------------|------------------------|----------10----10--8--|--8--10--------|----------15--13----12--|-----------------------|---------------|------------------------|-----------------------|---------------|------------------------|
--------------------------|----------------------------------------|--------------------------|----------------------------------------|--------------------------|--11--------11--------12----------------|--10----10----10------10--|------------------10--------------------|--------------------------|----------------------------------------|--------------------------|----------------------------------------|
------------------|-------------------------|--------------------------|------------------|-------------------------|--------------------------|------------------|-------------------------|--------------------------|------------------|----------13--12----10-8-|--10--13-10-----------10--|------------------|-------------------------|--------------------------|------------------|-------------------------|--------------------------|
----------------------------------------|------|--------------------------|----------------------------------------|------|--------------------------|--11--------11--------12----------------|------|--------------------------|------------------10--------------------|------|------15----15--13s---12--|----------------------------------------|------|--------------------------|----------------------------------------|------|--------------------------|
------------|--------------------------|----------------------------|------------|--------------------------|----------------------------|------------|------------9--------8----|------10--------------------|--10--------|--------10-------10-------|----------10----------------|------------|--------------------------|----------------------------|------------|--------------------------|----------------------------|
--------------------------|--------------------------|-------------------------|--------------------------|--------------------------|-------------------------|------------9--------8----|----10--------------------|-------------9--------8--|--------10-------10-------|----------8----8--8-6-----|---------10-------10-----|--------------------------|----------------------8-8-|--8----------------------|--------------------------|--------------------------|-------------------------|
--------------4--6--8--|--8----8----6--4-----4--|----6----------------|-----------------------|------------------6-----|---------------------|----10-----------------|------------------------|---------------------|-----------------------|------------------------|---------------------|-----------------------|------------------------|---------------------|-----------------------|------------------------|---------------------|
------------12--------11----|------13--------|------------12--------11----|--------13--------13--------|----------13----|--------13--------13--------|----------------------------|----------------|----------------------------|----------------------------|----------------|----------------------------|----------------------------|----------------|----------------------------|----------------------------|----------------|----------------------------|
----13-------------------------|--------------12--------11----|----------11----11--11-9-------|----------13--------13--------|-------------------------10-10-|--10--------------------------|-------------------------------|------------------------------|-------------------------------|------------------------------|-------------------------------|------------------------------|
----13--------16--18--20--|--20----20----18--16------16--|--------------------------|----------------------18------|--------------------------|------------------------------|--------------------------|------------------------------|--------------------------|------------------------------|--------------------------|------------------------------|
----18----------------|------------------|------------------|------------------|----------------------|------------------|------------------|------------------|----------------------|------------------|------------------|------------------|----------------------|------------------|------------------|------------------|----------------------|------------------|------------------|------------------|----------------------|------------------|------------------|------------------|
------------------|-----------------|-----------------|-----------------|------------------|--------4--------|-----------------|--------6--------|------------------|-----------------|--------5--------|-----------------|------------------|-----------------|-----------------|-----------------|------------------|-----------------|-----------------|-----------------|------------------|-----------------|-----------------|-----------------|
Solo: Strict Legato
-----------------8-8/3-8-8-3-|--8-8-3-8-8-3-8-8-3-8-8-3-8--3----|-----------------------------|----------------------------------|--------5--------------------|----------------------------------|-----------------------------|----------------------------------|-----------------------------|----------------------------------|-----------------------------|----------------------------------|
--------8-8-3-8-8-3-8-8-3-8-8-3-8-8-3-8-8-3-8----|------10r-8-6-8~---8----|-------------------------------------------------|------------------------|-------------------------------------------------|------------------------|-------------------------------------------------|------------------------|-------------------------------------------------|------------------------|-------------------------------------------------|------------------------|
-----8-8-10-10b-------8-6-|--8--8-8r8--8-6-4-3-4--3-4-6--4-3---3---------|--------------------------|----------------------------------6---6-4-3-4-|--------------------------|----------------------------------------------|--------------------------|----------------------------------------------|--------------------------|----------------------------------------------|--------------------------|----------------------------------------------|
--3-------------------------------------------|----4-6--6-3-4-3-------------3----------------|-----------------5-3-5-5-5-5---3-5---------3--|---------------------------------------5-6----|----------------------------------------------|----------------------------------------------|
-----------------------------------------------|-----------------------------------------------|-------------------------------------3---------|--5-6-6----------------------------6---6-5-----|---------6-5-3--3-----3-5-6--5-5-6---------6-5-|--------------------1--------------------------|
----------------------------------------|----------------------------------------|----------------------------------------|----------------------------------------|--3-1-3--5-3------------3-5-3-----------|--------------1----1----------6-5-3-1-3-|
-----------------------------------------|-----------------------------------------|-----------------------------------------|------------------------------3-5-6--5---|--------3-5-6--5-3-3----3-5-6----------6-|--3-4-6----------------------------------|
----------------------------------------------------------|----------3-4-6--8-9-8-6--6-4-3---------------------------|------5-3-----------------------5-3---3-3-----------------|--5-6-------------------------------5-----5-6-5-3-----3---|--------------------------------------------------5-6---6-|----------------------------------------------------------|
------------------------------------------------------------|--------------------------------------3---------------------|------3-5--3-5------------3-------3-5---5-3-----------------|--5-6-----------------5-3---6-5-6-----------6-5-3---------3-|---------------3-5-6------------------------------6-5-3-6---|------------------------------------------------------------|
------------------------------3-4-6-4---------------------------------|--------------------3-4-6-4-6---------3-4-6-4-3-----------------------|--------------3-5-3-----------------------------5-3-------------------|--------3-5-6---------------------------------------6-5-3-5-6-5-3-----|--3-5-6-----------------------------------------------------------6-5-|----------------------------------------------------------------------|
--------------------------------------------------------3-4-6-3-4-3-4-|----------------------------------3-4-6-4-3-------3-4-6---------------|------------------------------3-5-----------5-3-5---------------------|------------------------3-5-6-----------------------------------------|--3---------------3-5-6-----------------------------------------------|----6-4-3-1-3-4-6-----------------------------------------------------|
--6-8-6-4-3-------3---3-4-6-8-10-8-11-10-8-6-8-6-4-3-------------------|------------3-4-6---6--------------------------------6-4-3-------------|-----------------------------------------------------------5-3-5-------|-----------------------------------------------------------------6-5-3-|-----------------------------------------------------------------------|-----------------------------------------------------------------------|
--------------3-4-6-----3-4-6-4-3-4-6-8-6-8-10-11-8-10-11-10-8-6-8-10-8-6-4-|--------3-4-6-------4-6-----------------------------------------------------|----3-5---------------------------------------------------------------------|--5-------------------------------------------------------------------------|----------------------------------------------------------------------------|----------------------------------------------------------------------------|
--3-4-6-8-10-8-6-4-6-8-6-10-6-8-10-11-10-8-8-10-11--13-|-------------------------------------------------------|-------------------------------------------------------|-------------------------------------------------------|-------------------------------------------------------|-------------------------------------------------------|
--13------------------------|----------------------------|----------------------------|----------------------------|--------------9--------8----|------10--------------------|----------10-------10-------|----------10----------------|----------------------------|----------------------------|----------------------------|----------------------------|
--------------------------|--------------------------|-------------------------|--------------------------|--------------------------|-------------------------|------------9--------8----|----10--------------------|-------------9--------8--|--------10-------10-------|----------8----8--8-6-----|---------10-------10-----|--------------------------|----------------------8-8-|--8----------------------|--------------------------|--------------------------|-------------------------|
--------------4--6--8--|--8----8----6--4-----4--|----6----------------|-----------------------|------------------6-----|---------------------|----10-----------------|------------------------|---------------------|-----------------------|------------------------|---------------------|-----------------------|------------------------|---------------------|-----------------------|------------------------|---------------------|
------------12--------11----|------13--------|------------12--------11----|--------13--------13--------|----------13----|--------13--------13--------|----------------------------|----------------|----------------------------|----------------------------|----------------|----------------------------|----------------------------|----------------|----------------------------|----------------------------|----------------|----------------------------|
----13-------------------------|--------------12--------11----|----------11----11--11-9-------|----------13--------13--------|-------------------------10-10-|--10--------------------------|-------------------------------|------------------------------|-------------------------------|------------------------------|-------------------------------|------------------------------|
----13--------16--18--20--|--20----20----18--16------16--|--------------------------|----------------------18------|--------------------------|------------------------------|--------------------------|------------------------------|--------------------------|------------------------------|--------------------------|------------------------------|
----18----------------|--------------------------------------|----------------------|---------------------11-13------11----|----------------------|-------------8-10-13---------------10-|----------------------|----------10--------------------------|----------------------|--8-10-12-----------------------------|----------------------|--------------------------------------|
Rythm:*Loosely strum so you hit some open notes!e|-------------|-------------|-------------|-------------|B|-------------|-------------|-------------|-------------|G|-------------|-------------|-------5--5~-|-------------|D|----5-----4~-|-------5--5~-|----3--------|-------5--6~-|A|-3-----3-----|----3--------|-1-----------|----3--------|E|-------------|-1-----------|-------------|-1-----------|
e|-------------|-------------|-------------|-------------|B|-------------|-------------|-------------|-------------|G|-------------|-------------|-------5--5~-|-------------|D|----5-----4~-|-------5--5~-|----3--------|-------5--6~-|A|-3-----3-----|----3--------|-1-----------|----3--------|E|-------------|-1-----------|-------------|-1-----------|
Also chuck in a couple of these chords for good measure
e|-------3--3--|--------8--8--|-------3--3-|-------8--8--|B|-------4--4--|--------9--9--|-------4--4-|-------9--9--|G|-5--5--5--5--|--10-10-10-10-|-5--5--5--5-|-10-10-10-10-|D|-5--5--5--5--|--10-10-10-10-|-5--5--5--5-|-10-10-10-10-|A|-3--3--------|--8--8--------|-3--3-------|-8--8--------|E|-3--3--------|--8--8--------|-3--3-------|-8--8--------|
===============================================================================
Please rate this tab:
x1.0