Joe Satriani - Always Whit Me Always Whit You tab

        Always With Me, Always With You

Joe Satriani
tabbed by :Josť Alonso R.G.
any comments to: Korn_evsnc@hotmail.com


This is a great song of satriani and i think it`s very easy to play
i dedicate this tab to my OLGA.

And rate this tab....


(INTRO)Clean guitar and Palm muted

Badd11 Badd11 E7Madd13-----------0--------|-----------0--------|--------------------|--------4-----4-----|--------4-----4-----|-----------4--------|-----4-----------4--|-----4-----------4--|--------6-----6-----|--------------------|--------------------|-----6-----------6--|--2-----------------|--2-----------------|--------------------|--------------------|--------------------|--0-----------------|
F#sus4 Badd11 Badd11--------------------|-----------0--------|-----------0--------|-----------2--------|--------4-----4-----|--------4-----4-----|--------4-----4-----|-----4-----------4--|-----4-----------4--|-----4-----------4--|--------------------|--------------------|--------------------|--2-----------------|--2-----------------|--2-----------------|--------------------|--------------------|
E7Madd13 F#sus4 Badd11--------------------|--------------------|-----------0--------|-----------4--------|-----------2--------|--------4-----4-----|--------6-----6-----|--------4-----4-----|-----4-----------4--|-----6-----------6--|-----4-----------4--|--------------------|--------------------|--------------------|--2-----------------|--0-----------------|--2-----------------|--------------------|
Badd11 E7Madd13 F#sus4-----------0--------|--------------------|--------------------|--------4-----4-----|-----------4--------|-----------2--------|-----4-----------4--|--------6-----6-----|--------4-----4-----|--------------------|-----6-----------6--|-----4-----------4--|--2-----------------|--------------------|--------------------|--------------------|--0-----------------|--2-----------------|
F#sus4/G# E7Madd13 F#sus4--------------------|--------------------|--------------------|-----------2--------|-----------4--------|-----------2--------|--------4-----4-----|--------6-----6-----|--------4-----4-----|-----4-----------4--|-----6-----------6--|-----4-----------4--|--------------------|--------------------|--------------------|--4-----------------|--0-----------------|--2-----------------|
F#--------------------|-----------2--------|--------3-----3-----| this repeat over and over again when satriani-----4-----------4--| plays the part write down.--------------------|--2-----------------|
This is when satriani begin to play this great song.
----------------|----------------|------------------|------------------|----------4--5--|--5/7~----------|--7/9-----7----5--|--4----5----------|----------------|----------------|------------------|----------4/6~----|----------------|----------------|------------------|------------------|----------------|----------------|------------------|------------------|----------------|----------------|------------------|------------------|
--------------|-------------------|------------------|---------------|--------------|-------------------|------------------|---------------|--------------|--6/4---6--6/8-----|--8/9~----8----6--|---------------|--------------|-------------------|------------------|--4~-----------|--------------|-------------------|------------------|---------------|--------------|-------------------|------------------|---------------|
----------------|-----------------|------------------|---------------|----------------|-----------------|------------------|---------------|----------------|--4~-------------|--4/6~------6/8/--|--6~-----------|--------4----4--|---------4----4--|------------------|---------------|----------------|-----------------|------------------|---------------|----------------|-----------------|------------------|---------------|
----------------------|------------------|----------------|---------------|-----4------5----7----|--7/9h--7/---5/---|--4~----------4/|--2------------|--4-------------------|------------------|----------------|---------------|----------------------|------------------|----------------|---------------|----------------------|------------------|----------------|---------------|----------------------|------------------|----------------|---------------|
----------------|-------------------|----------7----7--|----------------|------4--5--5/7----|--7/9~------------|--2/4~----------|-------------------|------------------|----------------|-------------------|------------------|----------------|-------------------|------------------|----------------|-------------------|------------------|
-----------9----9----9-11-|--12/14-----11--------|----------------|--9/11~------12---12------|---------------14-----|--14~-----------|--------------------------|----------------------|----------------|--------------------------|----------------------|----------------|--------------------------|----------------------|----------------|--------------------------|----------------------|----------------|
----18r---16--------|--18r-18r-------16----|--19b-----19------|--------------19----|----------19----------|------------------|--------------------|----------------------|------------------|--------------------|----------------------|------------------|--------------------|----------------------|------------------|--------------------|----------------------|------------------|
-------------------|----16h----14h12/11--14--|--12h-11------------|--17~-------17/-0--|-------------------------|----------14~-------|-------------------|-------------------------|--------------------|-------------------|-------------------------|--------------------|-------------------|-------------------------|--------------------|-------------------|-------------------------|--------------------|
--19----------18------|--16----------------|----------------|--------------|----------------------|----------19r-------|--19~-----------|--------------|------18r---------16--|------16------------|----------------|--------------|----------------------|--------------------|----------------|--------------|----------------------|--------------------|----------------|--------------|----------------------|--------------------|----------------|--------------|
----------------|--21~-------21/---|----14r---12----12----------|--------12------|------------------|-------------15----15h14h12-|----------------|------------------|----------------------------|----------------|------------------|----------------------------|----------------|------------------|----------------------------|----------------|------------------|----------------------------|
--15/17----14~-------|-----9r-9r-9r--7----|--7----------------------------|---------------------|-----------------10-|----10h8-7---------------------|---------------------|--------------------|-----------9h7/6-7h9---7-6/4-7-|---------------------|--------------------|-------------------------------|---------------------|--------------------|-------------------------------|---------------------|--------------------|-------------------------------|
----------------------------------|---------------|----------------|----------------------------------|---------------|----------14r---|----6h4---4-----------4-----------|---------------|----------------|--------7---7h5h4h5h7---7h5h4-----|---------------|----------------|------------------------------7h5-|--4~-----------|----------------|----------------------------------|---------------|----------------|
------------------------|--------------------------------------|--14--------------------|--------------12h14h15h14h12----------|------------------------|-----11h12h14----------------14-12/11-|------------------11h12h|--14----------------------------------|------------12h14-------|--------------------------------------|------------------------|--------------------------------------|
------------------|------------------|------------14r---|------------------|------------------|--10/12~----------|--------12--------|------------------|--11/15~----------|------------------|------------------|--------12/11-----|------------------|------------------|------------------|------------------|------------------|------------------|------------------|------------------|------------------|------------------|------------------|------------------|
------------------|----------------|------------14~---|--------------|------------------|------14r-------|--12~-------------|--------------|------------------|----------------|------------------|--------------|------------------|----------------|------------------|--------------|--10/9~--------9/-|----------------|------------------|--------------|------------------|----------------|------------------|--------------|
--------12----12--|--11/-----9/---7/-|--6~-----------|----------11--12--|------------------|------------------|---------------|------------------|------------------|------------------|---------------|------------------|------------------|------------------|---------------|------------------|------------------|------------------|---------------|------------------|------------------|------------------|---------------|------------------|
--12/14~----------|--14h16~----14----12--|--11----12/-9~-----|--------------|------------------|----------------------|-------------------|--------------|------------------|----------------------|-------------------|--------------|------------------|----------------------|-------------------|--------------|------------------|----------------------|-------------------|--------------|------------------|----------------------|-------------------|--------------|
--9/7---9--9/11~----|--11r---------9--|----------------|------------------|--------------------|-----------------|--9/7~----------|------------------|--------------------|-----------------|----------------|--------11----11--|--------------------|-----------------|----------------|------------------|--------------------|-----------------|----------------|------------------|--------------------|-----------------|----------------|------------------|
--------------------|----------------------|----------------|--12~---------------|--12/14~------14/16---|--14------------|----------11----11--|----------------------|----------------|--------------------|----------------------|----------------|--------------------|----------------------|----------------|--------------------|----------------------|----------------|
----11----12----14--|--16~---14~---------|------------------|----------------|--------------------|--------------17----|--16~----------16/|--14~-------14--|--------------------|--------------------|------------------|----------------|--------------------|--------------------|------------------|----------------|--------------------|--------------------|------------------|----------------|--------------------|--------------------|------------------|----------------|
--------------|------------------------------|------------------------------|12~-----------|--0-12h0h9-12h0h7-12h0h9-12h0h|-5-12h0h7-12h0h9-12h0h7-12h0h-|----------------|------------------------------|----------------------------|----------------|------------------------------|----------------------------|----------------|------------------------------|----------------------------|----------------|------------------------------|----------------------------|
------------------------------|--------------------------------|--5-12h0h7-12h0h7-12h0h7-12h0h|--11-12h0h11-12h0h9-12h0h7-12h0h|------------------------------|--------------------------------|------------------------------|--------------------------------|------------------------------|--------------------------------|------------------------------|--------------------------------|
------------------------------|------------------------------|--9-12h0h7-12h0h5-12h0h7-12h0h|--9-12h0h7-12h0h5-12h0h4-12h0h|------------------------------|------------------------------|------------------------------|------------------------------|------------------------------|------------------------------|------------------------------|------------------------------|
------------------------------|--------------------------------|--2-12h0h2-12h0h2-12h0h2-12h0h|--11-12h0h11-12h0h9-12h0h7-12h0h|------------------------------|--------------------------------|------------------------------|--------------------------------|------------------------------|--------------------------------|------------------------------|--------------------------------|
------------------------------|------------------------------|--9-12h0h7-12h0h5-12h0h7-12h0h|--9-12h0h7-12h0h4-12h0h5-12h0h|------------------------------|------------------------------|------------------------------|------------------------------|------------------------------|------------------------------|------------------------------|------------------------------|
------------------------------|---------------------|-----------------------|--5-12h0h5-12h0h5-12h0h5-12h0-|--8/9-----7/-9--9/12-|--12/14-----12--12/14--|------------------------------|--7/8-----6/-8--8/11-|--11/13-----11--11/13--|------------------------------|---------------------|-----------------------|------------------------------|---------------------|-----------------------|------------------------------|---------------------|-----------------------|
--12------------|--13/14---14----14----|--14-------14/19----|--9-------------|--10/11---11----11----|--12----------------|----------------|----------------------|--------------------|----------------|----------------------|--------------------|----------------|----------------------|--------------------|----------------|----------------------|--------------------|
--19~----16-----------|--19r-----16-------21r--|------19-21~----21/-|------------19h16-----|-------------19h16------|--------------------|----------------------|------------------------|--------------------|----------------------|------------------------|--------------------|----------------------|------------------------|--------------------|----------------------|------------------------|--------------------|
-------------4-----|---------------------4---|------4------------------|---------------7h4-|-----4-----------------7h|--4---4------------------|----6b---6b--------|--6b----7h-6h4-6r-6b-----|----6b--7h6h4------------|-------------------|-------------------------|--------------6h4--------|-------------------|-------------------------|------------------6h4/2--|-------------------|-------------------------|-------------------------|
-----------------|---------14------11--11r-|----11r--9h7h9-------------|-----------------|-------------12----------|---------------12h11h9-11~-|-----------------|------9------------------|---------------------------|-----------------|-------------------------|---------------------------|--2/4~--------4/-|-------------------------|---------------------------|-----------------|-------------------------|---------------------------|
------------------------|-----------------|--21r-----------|--19~-----21b--|----9h11h9/7h--9h7/5~---|--5/7~----7/-----|----------------|---------------|------------------------|-----------------|----------------|---------------|------------------------|-----------------|----------------|---------------|------------------------|-----------------|----------------|---------------|------------------------|-----------------|----------------|---------------|
----------------|---------------|----------------|----------------|----------------|---------------|----------4--5--|--5/7~----------|----------------|---------------|----------------|----------------|----------4/-6/-|--4~-----------|----------------|----------------|----------------|---------------|----------------|----------------|----------------|---------------|----------------|----------------|
------------------|-----------------|--------------|-----------------|--7/9h----7/---5/-|--4/---5/-2~-----|--------------|-----------------|------------------|-----------------|--------------|--4----6/-8------|------------------|-----------------|--------------|-----------------|------------------|-----------------|--------------|-----------------|------------------|-----------------|--------------|-----------------|
------------------|----------------|----------------|-----------------|------------------|----------------|----------------|-----------------|--8/9h----8/---6--|----------------|----------------|--4--------------|------------------|--6/4~----------|--------4----4--|---------4----4--|------------------|----------------|----------------|-----------------|------------------|----------------|----------------|-----------------|
------------------|---------------|----------------------|------------------|------------------|---------------|-----4------5----7----|--7/9h--7/---5/---|--4/6~------6/8/--|--6~-----------|--4-------------------|------------------|------------------|---------------|----------------------|------------------|------------------|---------------|----------------------|------------------|------------------|---------------|----------------------|------------------|
----------------|---------------|----------------|------------------|--4~----------4/|--2~-----------|----------------|-------4--5--7----|----------------|---------------|--2/4~----------|----4-------------|----------------|---------------|----------------|------------------|----------------|---------------|----------------|------------------|----------------|---------------|----------------|------------------|
-------------------|------------------|--------------|--7/9~----9/7---5--|--4h---5----------|--------------|-------------------|----------4/6~----|--------------|-------------------|------------------|--------------|-------------------|------------------|--------------|-------------------|------------------|--------------|
---------------------------|------------------------------|---------------------------|------------------------------|-----------8-9h---8--------|------------------------------|----8h9-11----------11h9h8/|--6h8h9h---8h6-----------6-6--|---------------------------|---------------9h7h6h7h9------|---------------------------|------------------------------|
-------------------------------|---------------|--------------|-------------|-------------------------------|---------------|--------------|-------------|-------------------------------|---------------|--------------|-------------|-------------------------------|---------------|--------------|-------------|--9h7h6h7h9h---7h6---6h7---6---|---------------|--------------|-------------|-------------------9---------9h|--7------------|--------------|-------------|
--------------|--------------|--------------|--------------|------||--------------|--------------|--------------|--------------|------||--------------|--------------|--------------|--------------|------||--------------|--------------|--------------|--------------|------||--------------|--------------|--------------|--------------|------||--------------|--------------|--------------|--------------|------||
Tap to rate this tab
 
# A B C D E F G H I J K L M N O P Q R S T U V W X Y Z