Joe Satriani - House Full Of Bullets tab

-------------------------------------------------------------------------------
		House Full Of Bullets - Joe Satriani
-------------------------------------------------------------------------------

Tabbed by: Grant Smith
Email: bulletproof__cupid@hotmail.com

Tuning: Standard

| /  slide up
| \  slide down
| h  hammer-on
| p  pull-off
| ~  vibrato
| +  harmonic
| x  Mute note
| ^  Bend
| #  Depress Whammy Bar
| t  Fret Tap


                                                     
E||------------------|------------------------------|B||------------------|------------------------------|G||------------------|------------------------------|D||------------------|------------------------------|A||------------------|------------------------------|E||------------------|--2~--0---2p0-2-2p0-2p0-0-2p0-|
------------------------------|------------------------------|------------------------------|------------------------------|------------------------------|------------------------------|------------------------------|------------------------------|------------------------------|------------------------------|--2~--0---2p0-2-2p0-2p0-0-2p0-|--2~--0---2p0-2-2p0-2p0-0-2p0-|
------------------------------|------------------------------|------------------------------|------------------------------|------------------------------|------------------------------|------------------------------|------------------------------|------------------------------|--2~--0---2p0-2-2p0-2p0-0-2p0-|--2~--0---2p0-2-2p0-2p0-0-2p0-|------------------------------|
-----------------------------|------------------------------|-----------------------------|------------------------------|-----------------------------|------------------------------|-----------------------------|------------------------------|--2~--0---2p0-2-2r-0-2p0-----|------------------------------|-------------------------2p0-|--2~--0---2p0-2-2p0-2p0-0-2p0-|
------------------------------|------------------------------|------------------------------|------------------------------|------------------------------|------------------------------|------------------------------|------------------------------|------------------------------|--4~--2---4p2-4-4p2-4p2-2-4-0-|--2~--0---2p0-2-2p0-2p0-0-2p0-|------------------------------|
-----------------------------|------------------------------|-----------------------------|------------------------------|-----------------------------|------------------------------|-----------------------------|------------------------------|--2~--0---2p0-2-2r-0-2p0-----|------------------------------|-------------------------2p0-|--2~--0---2p0-2-2p0-2p0-0-2p0-|
-------------------------|-------------------------------|-------------------------|--4---2------------------------|-------------------------|--2---2------------------------|-------------------------|-------------------------------|-------------------------|-------------------------------|--2~--0---2p0-2/---19/---|---------0-2-0-2-2-0-2-0-0-2p0-|
---------------------------|-------------------------------|----------------x-2--4--5--|--4---2------------------------|----------------x-2--2--2--|--2---2------------------------|---------------------------|-------------------------------|---------------------------|-------------------------------|--2~--0---2p0-2------------|---------0-2-0-2-2-0-2-0-0-2p0-|
---------------------------|-------------------------------|----------------x-2--4--5--|--4---5------------------------|----------------x-2--2--2--|--2---2------------------------|---------------------------|-------------------------------|---------------------------|---------0-2p0-2-2p0-2p0-0-2p0-|--2~--0---2p0-2------------|-------------------------------|
---------------------------|-------------------------------|----------------x-2--4--5--|--4---2------------------------|----------------x-2--2--2--|--2---2------------------------|---------------------------|-------------------------------|--2~--0---2p0-2------------|-------------------------------|---------------------------|---------0-2-0-2-2-0-2-0-0-2p0-|
---------------------------|------------------------------|----------------x-2--4--5--|--5---7-----------------------|----------------x-2--2--2--|--4---6-----------------------|---------------------------|------------------------------|---------------------------|----------4p2-4-4p2-4p2-2-4-0-|--2~--0---2p0-2------------|------------------------------|
---------------------------|-------------------------------|----------------x-2--4--5--|--4---2------------------------|----------------x-2--2--2--|--2---2------------------------|---------------------------|-------------------------------|--2~--0---2p0-2------------|-------------------------------|---------------------------|---------0-2p0-2-2p0-2p0-0-2p0-|
--------------------------|--7---7----5---5-----5-------|--------------------------|--4---4----5---5-----5-7p5---|--------------------------|-----------------------6p4---|-----------------------4--|---------4-------9p4-------4-|--------------------------|-----------------------------|--2~--0---2p0-2/---19/----|-----------------------------|
--7---7----5---5-----5-------|--7---7----5---5-----5-------|--4---4----5---5-----5-7p5---|--4---4----5---5-----5-7p5---|-----------------------6p4---|-----------------------6p4---|---------4-------9p4-------4-|---------4-------9p4-------4-|-----------------------------|-----------------------------|-----------------------------|-----------------------------|
--7---7----5---5-----5-------|--7---7----5---5-----5-------|--4---4----5---5-----5-7p5---|--4---4----5---5-----5-7p5---|-----------------------6p4---|-----------------------6p4---|---------4-------9p4-------4-|---------4-------9p4-------4-|-----------------------------|-----------------------------|-----------------------------|-----------------------------|
--7---7----5---5-----5-------|--7---7----5---5-----5-------|--4---4----5---5-----5-7p5---|--4---4----5---5-----5-7p5---|-----------------------6p4---|-----------------------6p4---|---------4-------9p4-------4-|---------4-------9p4-------4-|-----------------------------|-----------------------------|-----------------------------|-----------------------------|
--7---7----5---5-----5-------|--7---7----5---5-----5-------|--4---4----5---5-----5-7p5---|--7---7----5---5-----5-7p5---|-----------------------6p4---|-----------------------6p4---|---------4-------9p4-------4-|---------4-------9p4-------4-|-----------------------------|-----------------------------|-----------------------------|-----------------------------|
--7---7----5---5-----5-------|--7---7----5---5-----5-------|--4---4----5---5-----5-7p5---|--4---4----5---5-----5-7p5---|-----------------------6p4---|-----------------------6p4---|---------4-------9p4-------4-|---------4-------9p4-------4-|-----------------------------|-----------------------------|-----------------------------|-----------------------------|
--7---7----5-----------|----------------------------|--4---4----5-----------|--7--7----5-----------------|-----------------------|------------6p4-------------|---------4-------------|----------------7p4-4-------|-----------------------|----------------------------|----------------x------|----------------------------|
--------------------------------------------------------------------|-------12-9h10h12p10p9/10h12h14p-12p10/9h10h12p10p9-----------------|---6/9----------------------------------------------11p8h9h11---9p8-|--------------------------------------------------------------------|--------------------------------------------------------------------|--------------------------------------------------------------------|
---------------------------------------------------------|---------------------------------------------------------|---9h11h13--11p9/8h9p8/6-8---6h8p6---6-------------------|-----------------------------------9---9-7h9h11p9p7------|----------------------------------------------------11p7/|---------------------------------------------------------|
-----------------------------------4-9p|---------------------------------------|---------------------------------------|------9-6h7h9p7p6----------------------|--6h7-------------9---12/9~--9/-2------|---------------------------------------|
--4-------4-------7--5-4/2-5p4p2---2---------|----5p4-7---7p5p4----------------5---4h5p4p2-|---------------------------------------------|---------------------------------------------|---------------------------------------------|---------------------------------------------|
------------------------------------|----2h4p2---2-----------------------|--4-------4---4p2/1-----------------|-----------------------7----9/11/9--|-------------------------9----------|------------------------------------|
-------------------------------------------------|-------------------------------------------------|-------------------------------------------------|--14/-13/-11/-13/-14/-16/-13/-14/-11/-13/-11/-9--|-------------------------------------------------|-------------------------------------------------|
------------------------------|--12----------------------------------------|------------------------------|-----14-13-12--13r-12-----12----12----12----|---------------------11-11-13-|-----------------------14----14----14----14-|--11/7---7------7--9----------|--------------------------------------------|------------------------------|--------------------------------------------|------------------------------|--------------------------------------------|
------------------------------------------------------------------|--12----12----12----12----12----12----12--12----12--12--12--12----|-----14----14----14----14----14----14--------14----------------14-|------------------------------------------------------------------|------------------------------------------------------------------|------------------------------------------------------------------|
-------------------------------------|----------9------------------------|-------------------------------------|--12--------9---12-----------------|--11~---11-14----11~--9-11---11-9-11-|-----11-9-----9----11-9-11~----11--|--------------11-----------9---------|-----------------------------------|-------------------------------------|-----------------------------------|-------------------------------------|-----------------------------------|
--9h11-9h11-9h11p9-----------------------------------------|--------------------------10-9h10p9------------------------|-------------------9h11p9----------------11-9h11p9---------|------------------------------------11p9-----------11p9-11-|-----------------------------------------------------------|-----------------------------------------------------------|
----------------------------------------------------|----------------------------------------------14----|------------------------------------------13--------|--9-9----9-------------------11~-13h14h16--------16-|------12---12p11-9/-11h12h14------------------------|----------------------------------------------------|
-----------------------------12----|--------------------------13----14-|--13-14r----14~--14--14/9----------|-----------------------------------|-----------------------------------|-----------------------------------|
--------14----12----------------------------------|--13-12----13b---14-13-12-------------------------|--------------------------14-11----14----11----14-|--------------------------------13----13----11----|--------------------------------------------------|--------------------------------------------------|
----------------------------------|--14------------------14--------|-------------------------16b------|-----17b--17b--17b-------14/19b-|----------11----14----11----------|--------------------------------|--13-13~-----11----13-------------|--------------------------------|----------------------------------|--------------------------------|----------------------------------|--------------------------------|
--------x-x-x--17r--17b--|--19b--19b-------------21b--|--------x-x-x------------|---------------x-x-x-x------|--------x-x-x------------|---------------x-x-x-x------|-------------------------|---------------x-x-x-x------|-------------------------|----------------------------|-------------------------|----------------------------|
----21--20--19--17--19--------------14-|------------------------16~----x-16----|---------------------------------------|---------------------------------------|---------------------------------------|---------------------------------------|
-----------------------------------------------------------------------------|--17-16p15p14-16p14----14----------------------------------------------------|--------------------16----17-16-14----16----14-------------------------------|-----------------------------------16----16----16p14/13-14-13/11-13p11h13p11-|-----------------------------------------------------------------------------|-----------------------------------------------------------------------------|
----------------------------------------|---------------------------|----------------------------------------|---------------------------|----------------------------------------|---------------------------|--9--11------9--------------------------|---------------------13p11-|---------12-----11--12--9/-12/-7--9/-4--|----4~--4~--4~-4/----------|----------------------------------------|---------------------------|
--------------------------------------------------------------|--14-14----------14-14----------14-14----------14-14----------|--14-14----------14-14----------14-14----------14-14----------|--------11-12-11-------11-13-11-------11-13-11-------11-13-11-|--------------------------------------------------------------|--------------------------------------------------------------|
---------------------------------------------------------|--14-14----------14-14-----------------------------------|--14-14----------14-14-11----12-13----11/9--11-----------|--------11-13-11----------14-------14-11/9--11--11-11-11-|---------------------------------------------------------|---------------------------------------------------------|
------------------------------------------------------------|--14-14----------14-14----------14-14----------14-14--------|--14-14----------14-14----------14-14-11----11-14-14--------|--------11-13-11-------11-13-11----------14----------11-----|--------------------------------------------------------14--|------------------------------------------------------------|
--------------------------------------------14----14-|--------------14-------16-14----16------15-----17b---|-----------16-14-16h17-16-14----16-14~--16-----------|--14-12-14-16----------------16----------------------|-----------------------------------------------------|-----------------------------------------------------|
----------14----16~---14/----------|--17-18~-----14--------------16h17p|-----------------------------------|-----------------------------------|-----------------------------------|-----------------------------------|
---------------------------------------------7/|--16h17p16/12-14h16-12-14----12-12/5-7-9-10----|--------------------------14-------------------|-----------------------------------------------|-----------------------------------------------|-----------------------------------------------|
--4-7--5-4/2-4h5p4p2-------------------------|---------------------5p2-4h5p4p2---2-4-------|---------------------------------4-------4p2p|---------------------------------------------|---------------------------------------------|---------------------------------------------|
----------------------------------------------------------------------|----------------------------------------------------------------------|--1h2h4p2p1/2h4h6p4p2-------------2h4h6p4p2---2h4h6p4p2---2h4h6p4p2---|----------------------6p4p2h4h6-2-----------6-----------6-----------6-|----------------------------------------------------------------------|----------------------------------------------------------------------|
----------------------------------------------------------------------|----------------------------------------------------------------------|--2h4h6p4p2---2h4h6p4p2---2h4h6p4p2-----------------------------------|------------6-----------6-----------6-2h4h6p4p2-----------------------|------------------------------------------------6-2h4h6-2h4h6-4/6h7h9-|----------------------------------------------------------------------|
-------------------------------------------------------|-------------------------------------------------------|-------------------------8h9h11p9p8--------------------|--------6h7h9p7p6/7h9h11------------11-7/9---11-9/7--9-|--6h7h9------------------------------------------------|-------------------------------------------------------|
-----------------------------|-------------------------|-----------------------------|----------------------14-|-------------------------9~--|--9--9--9--9--9/---------|--------------7---7-9/11-----|-------------------------|--7-9~--7-9~----9------------|-------------------------|-----------------------------|-------------------------|
--12-12-12-12-12-12-12-12-12-12-12-12-12-12-12-12-12-12-12-12-12-12-12-12-12-12---14-14-14-14-14-14-14-14-14-14-14-14-14-14-14-14-14-14-14-14-14-14-14-14-14-14---------------------------------------------------------------------------------------------------------------------------------------------------------------------------------------------------------------------------------------------------------------------------------------------------------------------------------
--12-12-12-12-12-12-12-12-12-12-12-12-12-12-12-12-14-14-14-14-14-14-14-14-14-14---14-14-14-14-14-14-14-14-14-14-14-14-14-14-14-14-16-16-16-16-16-16-16-16-16-16---------------------------------------------------------------------------------------------------------------------------------------------------------------------------------------------------------------------------------------------------------------------------------------------------------------------------------
--12-12-12-12-12-12-12-12-12-12-12-12-12-12-12-12-12-12-12-12-12-12-12-12-12-12---14-14-14-14-14-14-14-14-14-14-14-14-14-14-14-14-14-14-14-14-14-14-14-14-14-14---------------------------------------------------------------------------------------------------------------------------------------------------------------------------------------------------------------------------------------------------------------------------------------------------------------------------------
--12-12-12-12-12-12-12-12-12-12-12-12-12-12-12-12-12-12-12-12-12-12-12-12-13-13---14-14-14-14-14-14-14-14-14-14-14-14-14-14-14-14-14-14-14-14-14-14-14-14-15-15---------------------------------------------------------------------------------------------------------------------------------------------------------------------------------------------------------------------------------------------------------------------------------------------------------------------------------
--14-14-14-14-14-14-14-14-14-14-14-14-14-14-14-14-14-14-14-14-14-14-14-14-14-14---16-16-16-16-16-16-16-16-16-16-16-16-16-16-16-16-16-16-16-16-16-16-16-16-16-16---------------------------------------------------------------------------------------------------------------------------------------------------------------------------------------------------------------------------------------------------------------------------------------------------------------------------------
--14-14-14-14-14-14-14-14-14-14-14-14-14-14-14-14-14-14-14-14-14-14-14-14-14-14---17-17-17-17-17-17-17-17-17-17-17-17-17-17-17-17-16-16-16-16-16-16-16-16-16-16---------------------------------------------------------------------------------------------------------------------------------------------------------------------------------------------------------------------------------------------------------------------------------------------------------------------------------
--17-17-17-17-17-17-17-17-17-17-17-17-17-17-17-17-17-17-17-17-17-17-17-17-17-17---17-17-17-17-17-17-17-17-17-17-17-17-17-17-17-17-17-17-17-17-17-17-17-17-17-17---------------------------------------------------------------------------------------------------------------------------------------------------------------------------------------------------------------------------------------------------------------------------------------------------------------------------------
--17-17-17-17-17-17-17-17-17-17-17-17-17-17-17-17-19-19-19-19-19-19-19-19-20-20---17-17-17-17-17-17-17-17-17-17-17-17-17-17-17-17-19-19-19-19-19-19-19-19-19-19---------------------------------------------------------------------------------------------------------------------------------------------------------------------------------------------------------------------------------------------------------------------------------------------------------------------------------
--21-21-21-21-21-21-21-21-21-21-21-21-21-21-21-21-21-21-21-21-21-21-21-21-20-20---19-19-19-19-19-19-19-19-19-19-19-19-19-19-19-19-19-19-19-19-19-19-19-19-19-19---------------------------------------------------------------------------------------------------------------------------------------------------------------------------------------------------------------------------------------------------------------------------------------------------------------------------------
--19-19-19-19-19-19-19-19-19-19-19-19-19-19-19-19-19-19-19-19-19-19-19-19-19-19---19-19-19-19-19-19-19-19-19-19-19-19-19-19-19-19-19-19-19-19-19-19-19-19-19-19---------------------------------------------------------------------------------------------------------------------------------------------------------------------------------------------------------------------------------------------------------------------------------------------------------------------------------
--17-17-17-17-17-17-17-17-17-17-17-17-17-17-17-17-17-17-17-17-17-17-17-17-17-17---17-17-17-17-17-17-17-17-17-17-17-17-17-17-17-17-17-17-17-17-17-17-17-17-17-17---------------------------------------------------------------------------------------------------------------------------------------------------------------------------------------------------------------------------------------------------------------------------------------------------------------------------------
---------------------------|-------------------------------|--19/----------------------|--4---2------------------------|----------14/11-x----------|--2---2------------------------|-------------------x-------|-------------------------------|---------------------------|-------------------------------|----------------------x----|---------0-2-0-2-2-0-2-0-0-2p0-|
---------------------------|-----------------------------|----------------x-2--4--5--|--4---2----------------------|----------------x-2--2--2--|--2---2----------------------|---------------------------|-----------------------------|---------------------------|--------------------------x--|--2~--0---2p0-2------------|---------0-2-0-2-2-0-2-0-----|
--17r---14------14----------------|-------------------------------|------------17r-----17b-----------|--4---5------------------------|----------------------------------|--2---2------------------------|----------------------------------|-------------------------------|----------------------------------|---------0-2p0-2-2p0-2p0-0-2p0-|---------------------------x-9/---|-------------------------------|
---------------------------|-------------------------------|----------------x-2--4--5--|--4---2------------------------|----------------x-2--2--2--|--2---2------------------------|---------------------------|-----------------------------2~|--2~--0---2p0-2------------|---------------------------4---|---------------------------|---------0-2-0-2-2-0-2-0-0-----|
---------------------5------|------------------------------|-------------5~--7-x----x-x-|--5---7-----------------------|--------2--6------------x-x-|--4---6-----------------------|----4-x---------------------|------------------------------|----------------------------|----------4p2-4-4p2-4p2-2-4-0-|----------------------------|------------------------------|
---------------------------|-------------------------------|----------------x-2--4--5--|--4---2------------------------|----------------x-2--2--2--|--2---2------------------------|---------------------------|-------------------------------|--2~--0---2p0-2------------|-------------------------------|---------------------------|---------0-2p0-2-2p0-2p0-0-2p0-|
----------------------------|--7---7----5---5-----5-------|----------------------------|--4---4----5---5-----5-7p5---|----------------------------|-----------------------6p4---|----------------------------|---------4-------9p4-------4-|-----------------------12-9-|-----------------------------|--2~--0---2p0-2/---19/------|-----------------------------|
--7---7----5---5-----5-------|--7---7----5---5-----5-------|--4---4----5---5-----5-7p5---|--4---4----5---5-----5-7p5---|-----------------------6p4---|-----------------------6p4---|---------4-------9p4-------4-|---------4-------9p4-------4-|-----------------------------|-----------------------------|-----------------------------|-----------------------------|
--7---7----5---5-----5-------|--7---7----5---5-----5-------|--4---4----5---5-----5-7p5---|--4---4----5---5-----5-7p5---|-----------------------6p4---|-----------------------6p4---|---------4-------9p4-------4-|---------4-------9p4-------4-|-----------------------------|-----------------------------|-----------------------------|-----------------------------|
--7---7----5---5-----5-------|--7---7----5---5-----5-------|--4---4----5---5-----5-7p5---|--4---4----5---5-----5-7p5---|-----------------------6p4---|-----------------------6p4---|---------4-------9p4-------4-|---------4-------9p4-------4-|-----------------------------|-----------------------------|-----------------------------|-----------------------------|
--7---7----5---5-----5-------|--7---7----5---5-----5-------|--4---4----5---5-----5-7p5---|--7---7----5---5-----5-7p5---|-----------------------6p4---|-----------------------6p4---|---------4-------9p4-------4-|---------4-------9p4-------4-|-----------------------------|-----------------------------|-----------------------------|-----------------------------|
--7---7----5---5-----5-------|--7---7----5---5-----5-------|--4---4----5---5-----5-7p5---|--4---4----5---5-----5-7p5---|-----------------------6p4---|-----------------------6p4---|---------4-------9p4-------4-|---------4-------9p4-------4-|-----------------------------|-----------------------------|-----------------------------|-----------------------------|
--7---7----5------------|------------------------------|--4---4----5------------|------------------------------|------------------------|------------------------------|---------4--------------|------------------------------|------------------12/---|------------------------------|------------------------|--2~--0---2p0-2-2p0-2p0-0-2p0-|
------------------------------|------------------------------|------------------------------|------------------------------|------------------------------|------------------------------|------------------------------|------------------------------|------------------------------|------------------------------|--2~--0---2p0-2-2p0-2p0-0-2p0-|--2~--0---2p0-2-2p0-2p0-0-2p0-|
---------------------------|--------------------------|---------------------------|--------------------------|---------------------14r---|----14---14---14---14-----|---------------------------|--------------------------|---------------------------|--------------------------|--2~--0---2p0-2/-14--------|--------------------------|
----------------------------|------------------------------|----------------------------|------------------------------|--14---14---14--14---14-----|------------------------------|----------------------------|------------------------------|----------------------------|------------------------------|----------------------------|--2~--0---2p0-2-2p0-2p0-0-2p0-|
------------------------------|------------------------------|------------------------------|------------------------------|------------------------------|------------------------------|------------------------------|------------------------------|------------------------------|------------------------------|--2~--0---2p0-2-2p0-2p0-0-2p0-|--2~--0---2p0-2-2p0-2p0-0-2p0-|
------------------------------|------------------------------|------------------------------|------------------------------|------------------------------|------------------------------|------------------------------|------------------------------|------------------------------|------------------------------|--2~--0---2p0-2-2p0-2p0-0-2p0-|--2~--0---2p0-2-2p0-2p0-0-2p0-|
------------------------------|------------------------------|------------------------------|------------------------------|------------------------------|------------------------------|------------------------------|------------------------------|------------------------------|------------------------------|--2~--0---2p0-2-2p0-2p0-0-2p0-|--2~--0---2p0-2-2p0-2p0-0-2p0-|
------------------------------|------------------------------|------------------------------|------------------------------|------------------------------|------------------------------|------------------------------|------------------------------|------------------------------|------------------------------|--2~--0---2p0-2-2p0-2p0-0-2p0-|--2~--0---2p0-2-2p0-2p0-0-2p0-|
------------------------------|--------------------||------------------------------|--------------------||------------------------------|--------------------||------------------------------|--------------------||------------------------------|--------------------||--2~--0---2p0-2-2p0-2p0-0-2p0-|--2~--0-------------||
===============================================================================
Tap to rate this tab
 
# A B C D E F G H I J K L M N O P Q R S T U V W X Y Z