Joe Satriani - Luminous Flesh Giant tab

Joe Satriani - Luminous Flesh Giants

||--------------------------------------------------------|||--------------------------------------------------------|||o----5--7----------------5*--7--------------------------|||o----------3--------------------3-----------------------|||--5-----------5--5*----------------5--5*~---------------|||--------------------------------------------------------|
end 1=================================================--------------------------------10-----12--------------||------------------------11---------10--12-10-----------||--5~--7-----------------12--bf---------------12p10----o||---------3--------------------------------------------o||------------5--5~----------------------------------5~--||-------------------------------------------------------||
end 2 1/2-------------------------------------------------------||-------------------------------------------------------||-5~--7------------------------------------------------o||------------3--5----b---rb--5--3--5-------------------o||--------/5---------------------------3~w/bar--5~-------||-------------------------------------------------------||
end 3 1/2-------------------------------------------------------||-------------------------------------------------------||--5*--7-----------------------------------------------o||---------3--5b--rb--5b-rb--3--------------------------o||------------------------------5*-3*~------5~-----------||-------------------------------------------------------||
end 4--------------------------10-------------10--------------|------------------13bf~-------13p10---------13p10--------|-----5~--4-----0--------------------12bf----------12-10--|------------0--------------------------------------------|-5/------------------------------------------------------|---------------------------------------------------------|
1/2----------------------------------------------------------|----------------------------------------------------------|12b-rb12p10-------------------------------------------o---|------------12p10-------------------------------------o---|------------------128--5~---------------------------------|----------------------------------------------------------|
end 5----------------------------------------------------------|-----------10---10--10--10--10--10--10--10--10--10--------|-/10-------10---10--10--10--10--10--10--10--10--10--------|-/10------------------------------------------------------|----------------------------------------------------x-----|----------------------------------------------------x--x--| p.s.
----------------------------------------------------------|----------------------------------------------------------|-------------9--/-----------------------------------------|-------------9--/-----------------------------------------|--x--------------------5~---------------------------------|--x---x---------------------------------------------------|
1/2---------------------------------------------------------|-15--17p15--17~--15--17p15--17b--~w/bar------------------|---------------------------------------------------------|---------------------------------------------------------|---------------------------------------------------------|---------------------------------------------------------|
1/2---------------------------------------------------------|-15--17p15--17~--15--------------------------------------|---------------------14b--rb-----------------------------|---------------------------------------------------------|---------------------------------------------------------|---------------------------------------------------------|
1 1/2----------------------------------15---17--20--22b--rb---|-15-17p15--17~--15---17p15--18~--------------------------|---------------------------------------------------------|---------------------------------------------------------|---------------------------------------------------------|---------------------------------------------------------|
2---------------------------------------------------------|--15---17p15--17~---15--17p15--18bf-~--(18b)-rb--15~-----|---------------------------------------------------------|---------------------------------------------------------|---------------------------------------------------------|---------------------------------------------------------|
----------------------------------------------------------|-(15~)----------------------------------------------------|--------------14~--13~--12~-11~--10~--9~--8~--10--7~------|----------------------------------------------------------|----------------------------------------------------------|----------------------------------------------------------|
1/2----------------------------------------------------------|---------------------------15bf---15b---15~--14--13~------|-----7-----7--10--7---1-----------------------------------|--7-----7-------------------------------------------------|----------------------------------------------------------|----------------------------------------------------------|
-------------------------10-13p10-10------10------10------|-12--11~--13--10~---13bf-------------13bf----13bf----13bf-|----------------------------------------------------------|----------------------------------------------------------|----------------------------------------------------------|----------------------------------------------------------|
-10------10-----------------------------------------------|----13bf----10-13-----------------------------------------|------------------12bf-rb-10----10~--11-------------------|-----------------------------12---------------------------|---------------------------------------9------------------|----------------------------------------------------------|
--------10------108--8-----------------------15bf--rb-----|-10-------------------------------------------------------|---------7-------75--5----------5/------------------------|--7----------------------------------0--------------------|----------------------------------------------------------|----------------------------------------------------------|
-13--------------------10-----10-10-10/13--138------------|----15~--------10-----------------------------------------|------------------------7------7--7--7/10--10-5-----------|-----------------7----------------------------------------|----------------------------------------------------------|----------------------------------------------------------|
-8--8----------------------------------------------------|---------------------------------------------------------|-5--5--5/--h17p0h17p0h17p0h17p0h17p0h17p0h17p0h17p0h17p0-|---------------------------------------------------------|---------------------------------------------------------|---------------------------------------------------------|
3 1/2-----------------------------------------10---10-10-10---|----------------10-10-10-10-10-10-10-10------------------|-h17w/bar---------------------------------7----7--7--7---|-----------------7--7--7--7--7--7--7--7------------------|---------------------------------------------------------|---------------------------------------------------------|
-10-10-10-10-10-10----8----8--8--8--8--8/--------10-------|---------------------------------------------13~------13--|--7--7--7--7--7--7----5----5--5--5--5---------------------|----------------------------------------------------------|----------------------------------------------------------|----------------------------------------------------------|
1/2-10--13---10---------------------------------------------|-------------13p10-13-------------------------------10---|----------------------10-12p10--12b---10-----------------|-----------------------------------------12p10-------7---|-----------------------------------------------12--------|---------------------------------------------------------|
------------------------------10----10-10-10-10-10-10-10--|-10-10---10-10-10-10-10-10-10-----------------------------|-------------------------------7-----7--7--7--7--7--7--7--|--7--7----7--7--7--7--7--7--7-----------------------------|----------------------------------------------------------|----------------------------------------------------------|
/13---13--8---8--8---8-8-8-8-8-8--------------------------|-----------------------------------/13-t18p13y15p13-------|/10---10--5---5--5---5-5-5-5-5-5--------------------------|----------------------------------------------------------|----------------------------------------------------------|----------------------------------------------------------|
----------------------------------------------------------|---13tr15~----------t15-----------------------------------|----------------------------------------------------------|-------------------------xx/------------------------------|----------------------------------------------------------|-------------------------------x/-------------------------|
----------------------------------------------------------|----------------------------------------------------------|----------------------------------------------------------|----------------------------------------------------------|----------------------------------------------------------|--5---7--10--5--7-----5---6---5---4--7---5---7---10--5--7-|
--------------------------5-------------------5------5---|--------------------------5-------------------5------5---|---------------5--5--7bf-----7bf-7bf-7bf-7bf-----7bf-----|---------------5--5--------------------------------------|-----5--6--7---------------------------------------------|-10------------------------------------------------------|
------5-------5-------5-------5-------5-------5-------5--|------5-------5-------5-------5-------5-------5-------5--|-7bf-----7bf-----7bf-----7bf-----7bf-----7bf-----7bf-----|---------------------------------------------------------|---------------------------------------------------------|---------------------------------------------------------|
-------5-------5------------------5--------5--8--5-------|-------5-------5----------5---------8p5----5--8--5-------|--7bf-----7bf-----7bf--5-----7bf--------7----------------|-----------------------------------------------------0---|---------------------------------------------------------|---------------------------------------------------------|
1/2--8bf------8b----5---------------------------------------|--------------------8--5--------5/x----------------------|--------------------------8--8----8--7--------15~--------|---------------------------------------------------------|---------------------------------------------------------|-----------------------------------------0----5~---------|
1/2----------------------------------------------------------|----------------------------------------------------------|---------------15-----------15--15b-------------15--------|--17p15-----------17p15--------------17p15----------17p15-|---------17-------------17------------------17------------|----------------------------------------------------------|
1/4 same=======================================---------------------------------------------------------|---------------------------------------------------------|-------15b---------------15b-------------15b-------------|--------------17b15-----------17p15---------------17p15--|--17-----------------17--------------17-------17---------|---------------------------------------------------------|
====---------------------------------------------------------|---------------------------------------------------------|-15b-------------17--15-----15--17bf--15----15-17bf--15--|----------15h17---------17---------------17--------------|------17-------------------------------------------------|---------------------------------------------------------|
---------------------------------------------------------|-----------------------------------------------------18--|------15-17bf--rb15------15--17bf-rb--15--17--17bf-------|--17-----------------17----------------------------------|---------------------------------------------------------|---------------------------------------------------------|
---------------------------------------------------------|------------------------18-------------------------------|--17bf-rb1/2---15-17bf-------17bf-rb--15----15-17-15~----|-----------------------------------------17--------------|---------------------------------------------------------|---------------------------------------------------------|
------------15-------------------18-15------15-----------|--------15------15--18bf--15--15-------18bf----15-18p15--|--17bf---------------------------------------------------|---------------------------------------------------------|---------------------------------------------------------|---------------------------------------------------------|
1/2 1/2---------------------------------------------------------|------15----------18bf-rbp15-17b--15---------------------|-17bf----18-17-15--------------------17-15b--------------|---------------------------------------------17-15-------|---------------------------------------------------17----|---------------------------------------------------------|
1/2---------------------------------------------------------|---------------------------------------------------------|--15--17---17~-----------x-x-x-x-x-x-x-x-----------17b---|--15--17-----------19----x-x-x-x-x-x-x-x--17~---19-------|-------------------------x-x-x-x-x-x-x-x-----------------|-------------------------x-x-x-x-x-x-x-x-----------------|
1 1/2-----------------------------15----15---------------------|---------------17b-------rb-----16----16~-----17----------|--x-x-x-x-x-x--------------------------------------x-x-x--|--x-x-x-x-x-x---------------------------------------------|--x-x-x-x-x-x---------------------------------------------|--x-x-x-x-x-x---------------------------------------------|
5x 3x=====-17---------------17---17-----------------17--------------|-15bf---15bf--13-------15bf-rb--13-15-----15bf-rb-p13-----|--------------------------------------14--------------14--|----------------------------------------------------------|----------------------------------------------------------|----------------------------------------------------------|
1 1/2 1 1/2-20bf--b--------20~------20b--~~~~-----------------------|---------------------------------------------------------|---------------------0-----------------7w/wah------------|---------------------------------------------------------|---------------------------------------------------------|---------------------------------------------------------|
w/wah===========================================---------------------------------------------------------|---------------------------------------------------------|--7-------------7------------7------------7--------------|---------------------------------------------------------|---------------------------------------------------------|---------------------------------------------------------|
1/2---------------------------------------------------------|---------------------------------------------------------|--------5--7--7--7b----7~---8--7--8p7--5--7h8p7h8p7--5---|--5--7---------------------------------------------------|---------------------------------------------------------|---------------------------------------------------------|
---------------------------------------------------------|---------------------------------------------------------|-7h8p7h8p7p5-7h8-7h8p7p5-7~--5-5h8p7h8p7p5-7h8p7-5-7h8p7-|---------------------------------------------------------|---------------------------------------------------------|---------------------------------------------------------|
1/2-----------------------------------------------------------|-----------------------------------------------------------|-5/7-8h10-8/10h12-10/12-12h14p12-14b-rb--12h14p12-10h12p10-|-----------------------------------------------------------|-----------------------------------------------------------|-----------------------------------------------------------|
----------------------------------------------------------|----------------------------------------------------------|-8h10p8-7-7h8-5h7p5--3h5p32--2h3-3p2h3-5h7p5p3------------|-------------------------------------------------7p5p3----|----------------------------------------------------------|----------------------------------------------------------|
---------------------------------------------------------|---------------------------------------------------------|----------2h3h5/7p3-2h3h5p3p2h3--------------------------|-7p5p3h5-------------------------3--3--5p3p0-------------|----------------------------------------------5-3-3-3-5~-|---------------------------------------------------------|
----------------------------------------------------------|----------------------------------------------------------|----------0-----------------------------------------------|----------------------------------------------------------|-----/x---------------------------------------------------|--------------x--0----------------------------------------|
---------------------------------------------------------|---------------------------------------------------------|---------------------------------------------------------|---------------------------------------------------------|--5---7--5--7~---5-----7--5----8~w/bar-------------------|---------------------------------------------------------|
---------------------------------------------------------|---------------------------------------------------------|---------------------------------------------------------|---------------------------------------------------------|---5--7p5--7~----5-----1w/bar--p0------------------------|---------------------------------------------------------| push on bar before striking note
----------------------------------------------------------|----------------------------------------------------------|------------------------------------------10~~------------|--------------------------------5--7/10-------------------|--5---7p5--7~---5---5--7--8-------------------------------|----------------------------------------------------------|
---------------------------------------------------------|---------------------------------------------------------|------------------------------------------------14~~~----|---------------------------------------------------------|---5---7p5--7~---5---5/7---7---7~---5--5~~---------------|---------------------------------------------------------|
----------------------------------------------------------|----------------------------------------------------15bf--|--13~--12~--11--10~--9~--8~--10--7~------3+w/bar----------|----------------------------------------------------------|----------------------------------------------------------|----------------------------------------------------------|
1/2---------------------------------------------------------|--15b---15~---14---13~---12---11~---13---10~---10--------|---------------------------------------------------12bf--|---------------------------------------------------------|---------------------------------------------------------|---------------------------------------------------------|
---------------------------------------------------------|--10-------10------10------10------10------10------12----|------12bf----12bf----12bf----12bf----12bf----12bf-------|---------------------------------------------------------|---------------------------------------------------------|---------------------------------------------------------|
1/2 1/2-------10------------------------------------------------|--13bf----13p10----------------------------20bf----20b---|----------------12bf-rb-10----10b--10--------------------|---------------------------12---------12-----------------|---------------------------------------------------------|---------------------------------------------------------|
1 1/2-----------------------------------------17b---rb--------|--20--19--18~---17--16~---18--15~----15------------15~---|---------------------------------------------------------|---------------------------------------------------------|---------------------------------------------------------|---------------------------------------------------------|
1/2-------------22bf---22b--22--22--21--20~--19--18--20--17~-|----------------------------------------------------------|----------------------------------------------------------|----------------------------------------------------------|----------------------------------------------------------|--xp.s.---------------------------------------------------|
---17--22p17----22p17----22p17----22p17-----22p17----22--|-------------21-------21-------21-------21--------21-----|---------------------------------------------------------|---------------------------------------------------------|---------------------------------------------------------|---------------------------------------------------------|
trill-17--20bf~------------8---8-8-8-8/---20-t22-20------------|----------------------------------------------------------|-----------------11----5---5-5-5-5/-----------------------|----------------------------------------------------------|------------------9---------------------------------------|----------------------------------------------------------|
----------------------------------------------------------|------------------------13~----15-----13~----15----129----|------------/7--------------------------------------------|----------------------------------------------------------|------------/5--------------------------------------------|--17--x---------------------------------------------------|
----------------------------------------------------------|-10h12/13-13-12h13p12p109h10-97--6------------------------|--------------------------------------75/75/7~---5-5------|----------------------------------------------------------|----------------------------------------------------------|----------------------------------------------------------|
---------------------------------------------------------|-----------------------------------9-------------9h10h12-|--5/7/8h11---7/8h10h11--7/8h10h11-----7/8h10h11----------|---------------------------------------------------------|---------------------------------------------------------|---------------------------------------------------------|
---------------------------------------------------------|--9/10-12h13--/15--p13p12h13~-p12h13p10-12-9-9-10--------|----------------------------------------------------10p9-|---------------------------------------------------------|---------------------------------------------------------|---------------------------------------------------------|
----------------------------------------------------------|----------------------------------------------------------|-10h11p10p87h8--7h8p7-5h7p5-------------------------------|-----------------------------7p6----6-7--6-7-6-6-7-6-6-6--|----------------------------------------------------------|----------------------------------------------------------|
---------------------------------------------------------|---------------------------------------------------------|-----------------------------------7/17bf----------------|-6-6-7-6-6-6-7--6-6-6-7-6-6-6-7-6------------------------|---------------------------------------------------------|---------------------------------------------------------|
w/bar slack---------------------20----------20--22---22---22---------|-----18-------20-----------20-----------------------------|----------------------------------------------------------|----------------------------------------------------------|----------------------------------------------------------|----------------------------------------------------------|
Tap to rate this tab
 
# A B C D E F G H I J K L M N O P Q R S T U V W X Y Z