Johann Sebastian Bach - Presto tab

J.S. Bach
Presto - Violin Sonata No 1 in Gm - BWV 1001
December 16, 2000


[--3--6--3-----3-----I--------------------I--------------------][-----------3-----3--I-----3--------------I--------------------][--------------------I--3-----3-----3-----I--------------------][--------------------I-----------5-----5--I-----5--------------][--------------------I--------------------I--5-----5-----5-----][--------------------I--------------------I-----------6-----6--]
[--------------------I--3-----------------I--------------------] [-----------------3--I-----3--------------I-----------------7--] [--------------3-----I--------5--3--------I--------------7-----][-----------5--------I--------------7--5--I--4-----4--7--------][--------5-----------I--------------------I-----5--------------][--3--6--------------I--------------------I--------------------]
[--5------------------I-------------------I--6-----------------][---------------------I----------------8--I-----8-----------8--][-----8--7--5---------I--------------7----I--------8--5--8-----][--------------8--7---I--5-----5--8-------I--------------------][---------------------I-----5-------------I--------------------][---------------------I-------------------I--------------------]
[--5----------------I--------------------I----------------5----][-----6----------6--I--8-----------------I-----8--7--8---------][--------7----7-----I-----8--5-----5--8--I------------------5--][-----------8-------I-----------7--------I---------------------][-------------------I--------------------I--5------------------][-------------------I--------------------I---------------------]
[--------------------I--------------3-----I--------------------][--------------------I-----6--5--6--------I--------------------][-----5-----5--7-----I-----------------3--I-----3-----3--5-----][--5-----8--------3--I--------------------I--3----7------------][--------------------I--3-----------------I-----------------6--][--------------------I--------------------I--------------------]
[--------------------I--------------------I--------------------][--------------6-----I--------------------I--------------------][-----8--7--8--------I--------------------I-----------8-----8--][-----------------6--I--------------------I--10----10----10----][--------------------I--6-----6--10-6--10-I-----10-------------][--6-----------------I-----6--------------I--------------------]
[--------------------I--------------------I--------------------][--------------------I--------------------I--------------------][--------------------I-----------10---10--I--------------------][--------------------I--12----12----12----I--------------------][--8----8--12-8--12--I-----12-------------I--10---10-13-10-13--][-----8--------------I--------------------I-----10-------------]
[--------------------I--------------------I--------------------][--------------------I--------------------I-----------10----10-][-----------12----12-I--------------------I--10----10----10----][--13----13----13----I--7-----7--10-7--10-I-----10-------------][-----13-------------I-----8--------------I--------------------][--------------------I--------------------I--------------------]
[--------------------I--------------------I--------------------][----------11-10--11-I-----------11-10-11-I-----------11-10-11-][--------7-----------I-----7--8-----------I--7--8--10----------][--8--10-------------I--10----------------I--------------------][--------------------I--------------------I--------------------][--------------------I--------------------I--------------------]
[--------------------I--------------------I--------------------][--------8--11-10-11-I-----------8--------I--------------------][--8--10-------------I--------8-----10-8--I--7-----8-----10----][--------------------I--7--10-------------I-----8-----8-----6--][--------------------I--------------------I--------------------][--------------------I--------------------I--------------------]
[--------------------I--------------------I--------------------][--------------------I--------------------I--------------------][--------------------I--------------------I-----------------5--][--5--7--8--------7--I--------------------I-----5--4-----------][-----------5--------I-----5--------------I-----------7--5-----][--------------8-----I--6-----8--6--5--3--I--5-----------------]
[--------------------I-----6--5-----------I--------------5-----][-----------6--5-----I-----------8--6--5--I--6-----8-----------][-----------------7--I--6-----------------I-----7-----7-----5--][--8--7--5-----------I--------------------I--------------------][--------------------I--------------------I--------------------][--------------------I--------------------I--------------------]
[-----5--------------I--------------------I--------------------][---------8--6--5----I--5-----6-----8-----I-----8--6--5--------][-----------------7--I-----5-----5--------I--------------7--6--][--8-----------------I-----------------8--I--7-----------------][--------------------I--------------------I--------------------][--------------------I--------------------I--------------------]
[--------------------I--------------------I--------------------][--------------6-----I-----6--5-----------I--------------------][--7-----9-----------I-----------7--6--4--I--6-----7-----9-----][-----8-----8-----7--I--5-----------------I-----7-----7-----5--][--------------------I--------------------I--------------------][--------------------I--------------------I--------------------]
[--------------------I--------------------I--------------------][--------------------I--------------------I--------------------][-----7-----------5--I--------------------I--------------------][--------8--5--------I-----8--5--------7--I-----5-----------3--][--8-----------7-----I--5--------7--------I--------7--4--------][--------------------I--------------8-----I--6-----------5-----]
[--------------------I--------------------I--------------------I[--------------------I--------------------I--------------------I[--------------------I--------------------I--------------------I[-----3--------------I--------------------I-----------------5--I[--------7--5--4-----I-----5--4--7--5--8--I-----7--5--8--7-----I[--3--------------7--I--5-----------------I--5-----------------I
[--------------------I--------------------I--------------------][--------------------I--------------------I--------------------][--------------------I--------------------I--------------------][------------5----7--I-----5--4--7--5--8--I------8--7--5-------][-----8--7-----8-----I--------------------I--4-----------8--7--][--5-----------------I--6-----------------I--------------------]
[--------------------I--5-----------------I--------------------] [-----------------6--I--------------------I--------------------] [--------------7-----I-----7--------6-----I--7-----------------] [-----------7--------I--------7-----5-----I--4-----------------] [--8--5--8-----------I--------------0-----I--5-----------------] [--------------------I--------------------I--------------------]
Weed, thank you for your page. Here is my first tab. I owe you and everyone many more. Tablature by: Daniel David Cummings - drdanieldavid@altavista.com ***************************************************************** ***************************************************************** Subject: New Tab - J.S. Bach Date: Thu, 26 Oct 2000 21:24:22 -0600 (MDT) From: Daniel.Routman@Colorado.EDU Johann Sebastian Bach - BWV 1001 - Presto - Violin Sonata no 1 in G
E----6---------------------------------------------3------------B--8---8---8-------------------------------------3---3----------G--------7---7---7-----------------------------3-------5-3-2-0--D--------------8---8-5-8-5---5---------------5------------------A--------------------------5---5---5-------5--------------------E--------------------------------6---6-3-6----------------------
--------------5---------------------3-6-3-------3-5-------------------------7---4-3---------------3-------4---4-----6-------6-------------7---------5-3-2-------3-----------5---------7---7-------4---4-7-----------------5---5-------------------------8-----------5-----------------------5---------------------------------------------------------------------------------------------------
--3-------------------5---------------------------------------------4-------4---8-7-8-------------------6-5-6-8-----------------------5---5-------------5---5---5-7-------------------------------------7-----------------5---8-----------------8---8-7-8-10-6----------------5---------------------8-------------8---------------------------------------------------8-------------------------
--------------------------------------------------------------------4-3-4-6-------------------------------------------------------------------------------5---5-8-5-------------7---7-10-7-10---------------6-------5---5---5-------------7---7---7---------------------------6---6---6-------------8---8---8---------------------6-------------6---------------------8-------------------------
-------------------------------------------------------------------------------------------------------------------------------10----10-------------------8---8-12-8-12-------------------10----10----10---------------8----8---8--------------------10----10----10---------------10----10---10-----------------12----12----12---------------------------10----------------------------13-------------------------------
--------------------------------------------------------------------------11-10-11----------11-10-11----------11-10-11-----------------------------------------------------10---------------------8-10-12----------10-12-13----------12-13------------------------------------------------------------------------------------------------------------------------------------------------------
--------------------------------------------------------------------------11-10-11------------------------------------------------8-10-12-------------------12-10----------------10-----------------------------------10-13-------13-12----13--------------------------------------12-------------------13----13----11--------------------------------------------------------------------------
----------------------------------------------------6-5-----------------------------------------------------6-5---------8-6-5---------------------------------------5-----------7-6---------------5-7-8-----7---------------5-4-------8-7-5-----------------------------5-------5-3-------------7-5---------------------------------------8---6-----6-5-3-5-------------------------------------
----------5-----5-3-----------------------------------------------6---8-------------6-5-3-5---6---8-----8-6-5-----------------------7---7---5-3-------------5---5-------------7-6---------------------------------------------------8-7---------------------------------------------------------------------------------------------------------------------------------------------------------
---------------------------------------------------------------------------------6-5----------------------3-----------------------7---9---10---------7-6-4-6---7---9--------3-0---5-----------------8---8----7-5-------------7---7----5-3-------2-----------------------------------------------------------------------------------------------------------------------------------------------
------------------------------------------------------------------------------------------------------------------------------------3-0-----2---0-------------------------------------------------0-----2---------2-----3---3-2-0-------0---2-0-3-------------------------3---1-----4-0-----------4-2-0---4-----------------------------------------------3-------------------------------------
--------------------------------------------------------------------------------------------------------------------------------------------0-------0---2-------------------------------------------2-0-3-2-----3-2---3-----5-4-7-5-8---8-7-----------------------0-----------0-----------------------------10-8-7----------------------------------------6-----------9-------------------------
---------------------------------------------------------------|------------------10-------------------------------------------|---------------10----------------------------------------------|------------12-------12------11---12---------------------------|--8----8-12-------------12---10----9---------------------------|----10---------------------------------------------------------|
Tap to rate this tab
 
# A B C D E F G H I J K L M N O P Q R S T U V W X Y Z