Johann Sebastian Bach - Little Prelude In C Major tab

----------------------------------------------------------------------------
	     Little Prelude in C Major  - Johann Sebastian Bach
----------------------------------------------------------------------------


Tabbed by: Dave S. 
Email: prime-prine@hotmail.com

Tuning: Down 1 Step (Drop C)



D||--------------------------|--------------------------|A||--------------------------|--0--------0--------3--0--|F||-----------2--------5--2--|--------0-----0-----------|C||-----0--4-----4--0--------|-----0-----------0--------|G||--------------------------|--------------------------|C||--0-----------------------|--0-----------------------|
-----------0--------3--0--|--2-----------------2-----|--2-----2-----2-----------|--3-----------------3-----|-----2-----------2--------|--------------------------|--------------------------|--------------------------|--------------------------|-----------0--------------|--0-----------------------|-----0--4-----4--0-----4--|
--0-----------------0-----|--0--------0-------2--|------------------------|--0--------0--------0-----|--------2-----2----2--|-3-----------------3----|--7-----------------7-----|-----2--------2-------|-------------------4----|--------6-----6-----------|----------------------|-------0--4--0----------|-----7-----------7--------|--0----------------0--|----2-----------2--0----|--6--------------------6--|----------------------|----------------------4-|
--------------------------|-----------0--------3--0--|-----------0-----------0--|--2-----2-----2-----------|--------------------7-----|-----2-----------2--------|--------6-----6-----------|--------------------------|-----7-----------7--------|--0-----------0-----------|--6-----------------6-----|--------------------------|
--2--------2--------5--2--|--4--------3--------7--4--|--------3-----3-----------|--------3-----3--0--------|-----2-----------2--------|-----4--------------------|--------------------------|--------------------------|--0-----------0-----------|--0-----------0-----------|--------------------------|--------------------------|
--5-----------------------|--------5--10--5-----8--5--|--------------------2-----|-----7------------7--------|--------------------0-----|--7------------------------|-----------2-----------2--|--0------------0-----------|-----0--4-----4--0--------|---------------------------|--------------------------|---------------------------|
--7-5-3-2-0-----------------0-2-3-|--5---------------------|------------3-2-0-2---0-2-3-------|--------3----------2----|--0-----------------2-------------|--------2----------0----|----------------------------------|-----2--4--0-------2----|------------------0---------------|--------------0----0----|----------------------------------|------------------------|
-------------------||--3----------------||--2----------------||--4----------------||--0----------------||--0----------------||
| / slide up | \ slide down | h hammer-on | p pull-off | ~ vibrato | + harmonic | x Mute note ===========================================================================
Tap to rate this tab
 
# A B C D E F G H I J K L M N O P Q R S T U V W X Y Z