Johann Sebastian Bach – Bwv 596 - Organ Concerto In Dm tab

JS Bach - Concerto in Dm, BWV 596 after Antonio Vivaldi - 3. Largo

tabbed by motsukare (July 2009)

|-0---2--0--0----0---|-2---3--2--2----2---|-3----0---1---3--1--||-0------0--0----0---|-1---0--1--1----1---|-0----0---1---0--1--||-0---2--0--0----0---|-2------2--2----2---|-0----0---2------2--||--------------------|-----------1----1---|--------------------||--------------------|--------------------|----------0------0--||-0------0--0----0---|-0------0-----------|-0----0-------------|
|--1------1--0--1--0-|-0------0---------------|-7----5-3--3----2-0-|||--0------0--0-----0-|-1---3--1---4-5tr4---4--|-5--5---5--5--5---5-|||------------0--2--0-|------------4--------4--|-4------------------|||--0------0----------|-4------4---4--------4--|-5------------------|||------0-------------|-0------0---2--------2--|--------------------|||--4------4--3-----3-|------------------------|-0------------------||
|-8------8--------8--|-10-8tr10-7----12--7--|-------7-8---8----7---|||-8------8-----7--7--|--7-------7-----------|-10----------------10-|||-9----9----7--7--7--|--7---7---7-----------|----------------------|||-7--7---7--0--------|-------------9--9--9--|--7--7---7---7--7---7-|||--------------------|-10--10--10-10-10-10--|--9--9---9---9--9---9-|||--------------------|----------------------|----------------------||
|-----------------0--|-6p5h6-----------5-4--|--5-----7--0----5-4-||-9-------------7----|-------------------0--|-----------0------3-||-7------------------|-7-----------------7--|------------------4-||-9--9--9--9--9---9--|-5----5--5--5--7------|--4--4--4-----7---2-||-7--7--7--7--7---7--|-7----7--7--7--7---7--|--6--6--6--7--7-----||--------------------|----------------------|--------------------|
|-5---------------5--|-6----5-3--3-----3--|-5tr------------------||----------3--3---3--|-3------3--4--4--4--|----8------8----------||-5--5--5--5--5---5--|-3--3---3--3--3--3--|----------------------||-7--7--7--4--4---4--|-5--5---5--5--5--5--|-----------7---7---7--||--------------------|--------------------|-6---6--6--6---6---6--||--------------------|--------------------|-8---8--8--8---8---8--|
|--8----10--8---------8-|--6p5h6--5-3--3-------|--6-----5--4----2-0--||-----------------------|--------------3-----3-|--3-----3--0------0--||--------------7--------|--------------3--3--3-|---------------------||--------------7--------|--5----5---5--5--5--5-|--3--3--3--0--0---0--||--9--9----10--9---9--9-|--5----5---5----------|--5--5--5--7--7---7--||-10-10----12-10--10-10-|--3-------------------|---------------------|
|--8----7-6--7--------|-------5-3--------0-||---------------------|---------0--7-------||---------0--------7--|--6------6--6--6--6-||--7--7------4--4--4--|--5--5------8--8--8-||--7--7---7--5--5--5--|--7--7---7--9--9--9-||--8--8---9-----------|--------------------|
|---------------------------------|--7----5-3--3---2-0-|||-3p2h3---2-0--4-----4-----4------|--5--5---5--5--5--5-|||-4-----4---4--4tr2--4tr2--4tr2---|--4-----------------|||---------------------------------|--5--5---5--5--5--5-|||---------------------------------|--------------------|||---------------------------------|--------------------||to first
|-7tr--------------|--7----3-------------|-9----6--------------||----10------9-----|---------5--2----3-2-|--------7--4----5-4--||------------7-----|------------2------2-|-----------4------4--||-9-----9----9-----|-----2---2--2--2---2-|----4---4--4--4---4--||-7-----7----7-----|-----2---2--0--0---0-|----4---4--2--2---2--||------------------|--3--3---3-----------|-6--6---6------------|
|-7----3--------------|--5tr----------------||--------5--6----4-5--|-----8-----7---------||---------------------|---------------------||----2---2------------|-----------7---------||----2---2--3--3---3--|--7----7---6---------||-3--3---3--5--5---5--|--7----7---7---------|to coda
|-0------------------|||--------------------|||--------------------|||-5---5---5----------|||-7---7---7----------|||--------------------||repeat
Please rate this tab:
x1.0