Johann Sebastian Bach - Bwv 1004 - Chaconne tab

Chaconne, Violin Partita No 2 in Dm, BWV 1004 - JS Bach (1695-1750)
******************************************************************************
1st version - by Roger Margido Proeis, updated by Mark Michaelson (2009)
2nd version - by Roger Margido Proeis, updated by Curzio Vasapollo (2002)
3rd version - by Roger Margido Proeis, updated by Dan Shurley (2001)
******************************************************************************
I re-arranged Bach's Chaconne because I was not satisfied with current available
tablature arrangements.  I went measure by measure and changed accordingly to
the way I felt most comfortable playing and taking into consideration quality of
sound.  I felt the current available arrangements made too much use of open
strings.  I felt you get a better tone by using less open strings and more
versatility when playing certain notes fretted as opposed to open lets you
create more colors and are able to manipulate the sound and how you play those
notes with more of a variety.
You get a crisper tone when play notes fretted instead of open.  I was looking
for that crisper tone when playing Chaconne.  You can sustain the notes
differently when playing the notes fretted as opposed to open.  I see a lot of
tablature transcriptions are making heavy use of open strings which I don't
always agree.  It really depends on the piece of music and how you are trying
to make it sound.
The Chaccone is a very special piece and I felt it deserved special attention.
It's difficult enough to play as it is.  Customizing the tablature transcription
helped me to learn the piece better and kept my motivation and momentum going to
complete the transcription and learning process.
It was a long painful process.  But very worthwhile and I hope that anyone who
tries to play my arrangement can benefit from my time and effort into making the
piece somewhat easier and more sensible to play.  I hope this helps and I
welcome any questions, comments and corrections if need be.  Always a pleasure.
Mark Michaelson

Chaconne, Violin Partita No 2 in Dm, BWV 1004 - Johann Sebastian Bach

Arranged by Roger Margido Proeis - Classical Guitarist - iactive@online.no
Updated by Mark Michaelson (May 14, 2009) - MarkMichaelsonNY@aol.com

3/4

E||----------------|-----------------|--1--------------|---------------------|B||----------------|--5----5------5--|--3----3-----1---|---------------------|G||------2------2--|--3----2---------|--2----3---------|--3----2----0--------|D||------3---------|--5----5---------|--0----3---------|--5----3------3-2-3--|A||------5---------|--5----4---------|-------1---------|-------0----4--------|D||----------------|-----------------|-----------------|--5------------------|
--------------------|-----------------|--1----------------|--------------------|--5----5------5--|--3----3------3----|--0-------2------2--|--3----2---------|--2----3-----------|----2-3---3---------|--5----5---------|--0----3-----------|--0-----5-5---------|--5----4---------|-------1-----------|--0-----------------|-----------------|-------------------|
--6-----------5---3-1-3---0-----|------1--------------------|--5-----------2-----------2-----|------3--------------------|--0-----------------------2-----|------2-----------2-3---2--|--------------2-----------------|----------2-3---5----------|--------------0-----------------|------------5--------------|--5-----------------------------|------0--------------------|
--------------------|--0-----------------|------------------5-----|--5-----5-----------|--------3---6-5---3-|--3-----2---------5-----|--3-----2---3-2-----|--2-----------------|--------2---------6-----|--5---3-5---------5-|--3---2-3---7-5---3-|--2---0-2---5-3---------|--5-----4-----------|--5-----1-----------|--0-----0---------0-----|--------------------|------------------5-|------------------------|
--1-------------------------|--------------------|--0------------------|--3-------------------------|--5-----5-----------|--------3---6-5---2--|--2-----------------2-3-2---|--3-----2---3-2-----|--2------------------|------------2-3-5-----------|--5---3-5---------5-|--3---2-3---7-5---2--|----------------------------|--5-----4-----------|--5-----1---------1--|--0-------------------------|--------------------|---------------------|
-------------------|------------3-5-6------|------6-5--------------|--3---5-3----2---3-|--3--5-6-------------6-|--5---------8-10-------|--------2----2-----|---------------------7-|--6-----5----------11--|--3---5-2----2-----|--0--------------------|-------------------10--|--0-----0----0-----|--5--------------------|-----------------------|------5------------|--0--------------------|-----------------------|
----------------------|--1---3--0--1--3--0-|--------------------------|--8-----------------5-|---------2--3--5--2-|--6---------8-10-11----6--|-----10-9---7-6-7---3-|--2---4-------------|--7--7-9-10------------7--|--9-----8-------------|--------------------|-----------------------6--|----------------------|--------------------|--------------------------|----------------------|--------------------|--0-----------------------|
------6-5---3-5---2-|--3----------------0-|--1---3-0--------------|--5---------------1-|--0---6-5---3-2-3--3-|--3-----3---2-0-2------|--6-----5---------2-|--0-----3----------1-|--2-----2-----------0--|--7-----4-----------|---------------------|-----------------------|--------------------|-------------------1-|--0-----0-----------0--|--------------------|--------5------------|-----------------------|
--------------------|---------------------|-----------------------|-----6--5-----------|---------------------|------------------3-2--|-----------7--6--7--|--0--2-3----3--2-----|-----0-2-------0-------|--3-----------------|--0---------------5--|--3---------0----------|--5-----------------|---------4-----------|--5------1-------------|--0-----0-----------|---------------------|-----------------------|
------------------------|-------1-1-0-3-1-0-------|--------------------------|--3---------------------|-----3-------------3-2-3-|---------------------5----|--------------3-2-------|---2---------------------|---3---0-------3-2--------|-----3--2-3-5-----5-3-2-|-3-------0-----------0---|-5---4-----2-5-----5---5--|--------0---------------|-------------------------|---------4----------------|-----5------------------|-0-----------------------|-0-------0-----------0----|
--------------------------|--------1-0-3-------------|--------6--5--4-----|--------------------4-2-3-|----0-3-------2-3-----3-2-|-----6--6--6--6-----|--------------0-2-3-------|--1-----------------------|--7-----7--7--7-----|--3---------0-------------|--------------------2-----|-----------------6--|----4-5-0-1-----------0---|--2-------1-------0-------|-----------------5--|--0---------------5-------|--------------------------|--0-----------------|
--------5--3--2-----|--------3--1--0-----|----------------------|-----5--5--4--4-----|-----3--3--2--2-----|----6-5-3-2-----5-----|--2-----5--5--5-----|--0-----3--3--3-----|-------------2--------|--2--------------4--|--0--------------2--|--3---------------5---|--4--------------3--|--2--------------1--|--0-------0-----------|--------------------|--------------------|----------------------|
------------1-6-5-4-7-4---|------5-3-2-5-2------------|----------3-------------5-|--2-5-----------1----------|--------2-----------------|------------------2--------|--3-0-3-------0-----------|----------0---------4-0----|------------------7-------|--0---------------------3--|--0-----------------------|------------------0--------|
------------------6-5-4-5-|---------------------------|------------4-3-2---------|--6-5----------------------|----------0---------------|------7-5-3-2-1-2---0------|------5-4-----------------|----------------------3-2--|--2-5-----1---------------|----------0-------4--------|--------------------------|--5------------------------|
--------------------------|---------------------------|----------------2-3-------|------3-2------------------|------------2-4-----------|----------------5-5---5----|--3---2-3-5---------3---0-|----2-------4-7-----8---7--|----5-----------------7---|--0-------5----------------|--0-------0-----------6---|----------0-----------4----|
--------------------------|----0---------------------|----------------------4-3-|--2---------3---------3-2-|--3-----------------0-----|------2-0-----------------|----5-3---0---------------|----------3---2-0---2-----|--------6---3-1-0---------|--0-------0-------0-------|--5---------------5-------|--------------------------|
--3--------------------------|---------------------------|----5--6-2-3-----------------|---------------------------|-------------5--3-2----------|----3-2--------------------|--------------------5-3-2----|--------5-4---7-0----------|--------------------------5--|--4---------5-----3-1-3-0--|--0--------0-----------------|--0-------0----------------|
--------------------------|---------------------------|--------------------------|---------------------------|--------------------2-3-2-|--1-2----------------------|------------0-2-4-5-------|------2-3-5---------3-2----|--1---0-1-3---------------|------------4-5---0-----4--|----5---------------------|----------------6----------|
--------------------------|--------------------------|----3---------------3-----|----1---------------1-----|------2-0-------------0---|------0-------------------|--0-------3-2-0---------3-|--2-----3-2-0---------3-1-|----------------3-1-------|--3-----------3-1-0-------|--0-----------------------|--------------------------|
--------------------------|---------------------------|--------------------------|-----------------2-5-------|----3---------------3-----|-----------2---2-----0-2---|--0---3-1-0-------------0-|---------2---2-----------2-|--1---------3-1-0-----6---|--4--0-4-------------------|------------------5-------|--7------------------------|
----------------1---3-5-6-|----------------0---1-3-5-|----------3---3-----------|--5-------1---1-----------|--------2---2-----3-------|--------0---0-----2-------|--3-0-3-------------------|------2-------------------|--0-----------------------|----3---------------------|--------------------------|--------------------------|
--------------------------|--------0---------9-12--------|---1------1-3-------|--3-------------3---5-6-8-|--2---2---10---10-------------|---3------3---------|----------3---3-----------|----2--------9---------12-10-9|------2-----3p2-3-0-|------0-3---3-----5-------|------------------------------|--------0-----------|----1---------------------|--0-----------------0---------|--------------------|--------------------------|------------------------------|---0----------------|
-0------0-1-------|----------0-------|-------------5---5p3-5p0-|-1------1---------|-3------3---------|-----3---3p2-3p0-2-------|----0-----2p0-2---|-3------3---------|-2-----------------------|----------------3-|----3-----5p3-5p2-|-3p2-3p0-2---------------|------3-----------|------1-----------|---------0---------------|------------------|------------------|-------------------------|
--1---------------------6-|-0---------------------5-|--3p2-3---3---------------|-1p0-1---1---------------|--------2-------------7---|-------0-------------5---|----------3p2-3p0---5-----|---------2p0-2-----3-----|--------------------------|---------------3-0-------|--0---------------8-------|-------------------------|
------------------------3-|--------3-------1-------0--|--3-----------------------|------2-------3-------2----|----------3-----------4---|--------------------0------|--3---3---0---0-----2-----|----2-------3--------------|----6---5---3---1---------|--0-------0-------0--------|------------------5-------|---------------------------|
----------------------------------|----------------------------------|--3-------------------------------|----------------------------------|----2p0---------------7-5---------|----------------------5-3-2-------|--------3-2-0-------------8-7-5---|--2-5-3-2-------------------5-3-1-|--------------3-1-0-1-----------8-|----------5-3-1-0---0-------------|--0-------------------------------|------------------5---------------|
------------------------------------|------------------------------------|------------------------3-2---------|--0-3-1-0-------------------5-3-2---|--1-------3-1-5-3-1-0-------------5-|----------------------5-------------|
-------------------------------------------------|------------------------------------5-3-2--------|--------------------2-3-2-----------------4-2----|--------------2-3-5-------5-3-2---------------5--|--4-2-0-2-4-5-------------------5-4--------------|-------------------------------------------------|
------------------------------------3-5-6--|------------------------------3-5-6--------|-----------2-----------2--3-5--------------|--3---2-3-----3-----3----------------------|----5------------5-------------------------|--0----------------------------------------|
--------------------------------------3-5--|--5-----------------------------3-5-6------|--------------------------2-3-5------------|--------2--5--2-----2--5-------------------|----3-5----------3-------------------------|-------------------------------------------|
------------------------------------------|--3--------------------------------5-6-8--|-----------------------------3-5-7--------|-----------3-----------3-5-7--------------|----1-3-5-----5--1--5---------------------|------------------------------------------|
----6-5-3------------------------------------------|----------6-5-3------------------------------------|--6-------------5-3-2------------------------------|----------------------5-3-2---------------2-3-5-2--|--0-------------------------5-4-2-0-2-4-5----------|---------------------------------------------------|
------------------------------3-5-6------------|----------------2-3-----3-5-6------------------|------------2-4-----3-5------------------------|--3---2-3-5------------------------------------|----5-------------------------------5-5-3-5-1--|--0--------------------------------------------|
------------------------------2-3-5------------|------------------3-------3-5------------------|------------2-3-5---2-3-5----------------------|------2-4-5------------------------------------|--3-5-------------------------------3-1-3-1-0--|-----------------------------------------------|
--------------------------------2-3-5-6-5-3--------|------------------3---------3-5-------------6-5-3--|------------2-3-5-----2-3-5------------------------|----0-2-4-5---------5------------------------------|--1------------------------------------------------|---------------------------------------------------|
----5-3-----------------------3-5-6-3--------------|--2-----6-5-3-2-------2-3-5-6---------5-2----------|----------------4-2-4---------------------2--------|--------------------------------------------5-3-2--|----------------------------------0----------------|---------------------------------------------------|
--------0-1-------------1-|---------0---------------|--------------------------|------3-----3-------0-3---|-------1---1---------1-4-|---------3-------------2--|----2---------3-2-1-------|-----2-------2-0---2-----|-----0-3---3-0-----0-3----|--0---------------0-------|---2-------------4-------|---0-----------3-2--------|--------------------------|-3---------------3-------|-1---------------1--------|--0-----------------------|-------------------------|--------------------------|
--------------------------|-------------------------------|----------3-------------2-|----11-11-9-9------------------|--------2---2---------0---|--------------10-10-7-7--------|----0-3-------3-0---2-----|------------------------9-6----|--0---------------0-------|----------------------------7--|--------------------------|--0----------------------------|
----5-5-------------------|----3-3--------------------|--------7-7-4-4-----------|--------4-4-2-2------------|----------------5-5-------|----------------3-3--------|--------------------7-4---|--------------------5-2----|--4---------------------5-|--2---------------------4--|--------------------------|---------------------------|
---------------------------------|------------------------2-3-5----|------------------3-2-3----------|--------2-2-5-3-5-------------5--|--0-4-4--------------------------|---------------------------------|
--------------------------------3-5-3-----6-5-3----|--------2-3-2-----6-5-3-2-3-5-6-------6-5-------6--|----2-4-------4-2----------------------------------|--3------------------------------------------------|--0------------------------------------------------|---------------------------------------------------|
-------------------------------------------10-12-10-------13-12-10-----|----------9-10-9------13-12-10----10-12-13----------13-12----------14--|-----9-11--------11-9----------13--------------------------------------|--10-------------------------------------------------------------------|---0-------------------------------------------------------------------|-----------------------------------------------------------------------|
--10-12-13-12-10-13-12-10-13-12-10-13-12-10-13-12-10-15-13-12--------------|--------------------------------------------------------------15-13--------|--------------------------------------------------------------------15-14--|---------------------------------------------------------------------------|--0------------------------------------------------------------------------|---------------------------------------------------------------------------|
-----------------------------------------------------------------|--8-10-11-10-8-11-10-8-11-10-8-11-10-8-11-10-8-------------------|-------------------------------------------------10-9-7-6------0-|-----------------------------------------------------------9-7---|--0--------------------------------------------------------------|-----------------------------------------------------------------|
--------------------------------------------------------------|------10-------10-------10-------10-------10-------10---------|--------------------------------------------------------------|----0----0---0----0---0----0---0----0---0----0---0----0-------|--8--------8--------8--------8--------8--------8--------------|--0-----------------------------------0-----------------------|
---------------------------------------------------|------8-------8-------8-------8-------8-------8----|------------------------------------6---6---6---6--|----0---0---0---0---0---0---0---0------------------|--7-------7-------7-------7-------7-------7--------|--0-------------------------------0----------------|
---------------------------------------------------|------6-------6-------6-------6-------6-------6----|---------------------------------------------------|----0---0---0---0---0---0---0---0---7---7---7---7--|--5-------5-------5-------5-------5-------5--------|--0-------------------------------0----------------|
---------------------------------------------------|------5-------6-------5-------3-------3-------2----|---------------------------------------------------|----8---8---7---7---5---5---3---3---2---2---2---2--|----------------------------------0-------0--------|--5-------5-------5-------5------------------------|
---------------------------------------------------|------3-------3-------3-------3-------3-------3----|---------------------------------------------------|----3---3---3---3---3---3---3---3---3---3---3---3--|--5-------5-------0-------0-------1-------1--------|--0-------------------------------0----------------|
---------------------------------------------------|------4-------4-------4-------4-------4-------4----|---------------------------------------------------|----4---4---4---4---4---4---4---4---4---4---4---4--|--3-------3-------1-------1-------0-------0--------|--0-------------------------------0----------------|
---------------------------------------------------|------3-------3-------3-------3-------3-------3----|----0---0---0---0----------------------------------|--------------------3---3---3---3---2---2---2---2--|--1-------1-------0-------0------------------------|--0-------------------------------5-------5--------|
---------------------------------------------------|------3-------3-------3-------3-------2-------2----|------------------------------------0---0---0---0--|----3---3---3---3---2---2---2---2------------------|--0-------0-------0-------0-------0-------0--------|---------------------------------------------------|
---------------------------------------------------|------3-------3------------------------------------|----------------------2-------2-------3-------3----|----3---3---3---3---3---3---3---3---3---3---3---3--|--5-------5-------5-------5---------------5--------|--0-------------------------------0----------------|
---------------------------------------------------|---------------------------------------------------|------5-------5-------3-------3-------2-------2----|----4---4---4---4---4---4---4---4---4---4---4---4--|--5-------5-------5-------5---------------5--------|--0-------------------------------0----------------|
----------------------6-------6-------5-------5----|------------------------------------3---3---3---3--|------3-------3-----6----6---6--6------------------|----5---5---5---5-----------------3-------3--------|--5-------5-------7-------7------------------------|--0------------------------------------------------|
------3-------1-------0-------0-------0-------0----|----3---3---3---3---3---3---3---3---2---2---2---2--|--0-------0-------2-------2------------------------|---------------------------------------------------|----------------------------------0-------0--------|---------------------------------------------------|
------1-------1-------1-------1-------1-------1----|----3---3---3---3----------------------------------|--------------------2---2---2---2---3---3---3---3--|----------0-------0-------0---------------0--------|---------------------------------------------------|--0-------------------------------0----------------|
------2-------2-------2-------2-------2-------2----|----1---1---1---1----------------------------------|--------------------3---3---3---3---2---2---2---2--|----------0-------0-------0---------------0--------|---------------------------------------------------|--0-------------------------------0----------------|
------3-------3-------1-------1-------0-----------0--------|-----------------------------------------------------------|----3---3---3---3---2---2---2---2---0---0-------0---0------|----------0-------0-------0-----------7-----------7--------|----------------------------------4-----------4------------|--0--------------------------------------------------------|
---------------------------------------------------------|--------------------------2-------2-------2-------2------|------10--------10--------2-------2-------2-------2------|------7---------7-------2---2---2---2---2---2---2---2----|----8---8-----8---8---0-------0-------0-------0----------|--0---------0--------------------------------------------|
-----------------------1-------1-------1-------1----|-------3-------3---------------------1---1---1---1--|---------------------2---2---2---2------------------|-----3---3---3---3-0-------0------------------------|--5--------5----------------------------------------|--0--------------------------------0-------0--------|
--------------------------------------------------|------6-------6-------5-------5-------4-------4---|--------3-------3-------3-------3-----------------|----5-------5-------5-------5-------3---3---3---3-|----------------------------------0-------0-------|--5-------5-------5-------5-----------------------|
----------------------6-------6-------0-------0-----|------4-------4-------------------------3-------3---|------------------------7-------7---0-------0-------|----3---3---3---3-----------------------------------|--1-------1---------8-------8-----1-------1---------|------------------8-------8-------------------------|
-------0-------0-------5-------5-------3-------3------|---------3-------3-------2-------2-------2-------2----|-----2-------2----------------------------------------|---------------------2-------2-------2-------2--------|--0--------0-------0-------0-------0-------0----------|------------------------------------------------------|
-------1-------1-------2-------2-------2-------2----|---------3-------3---3---3---3---3---1---1---1---1--|-----2-------2--------------------------------------|-----------0-------0-------0-------0-------0--------|----------------------------------------------------|--0-------------------------------------------------|
------3-------3-------4-------4-------4-------4----|--------------------0---0---0---0---3---3---3---3--|----3---3---3---3----------------------------------|--0-------0-------0-------0-------2-------2--------|---------------------------------------------------|---------------------------------------------------|
------5-------5-------8-------8-------7-------7----|---------------------------------------------------|----5---5---5---5---8---8---8---8---7---7---7---7--|--3-------3----------------------------------------|------------------9-------9------10------10--------|---------------------------------------------------|
------10----------10---------10--------10-------9-------9----|-------------------------------------------------------------|----10---10----10----10----9----9----9----9---9---9---9---9--|-------------------------------------------------------------|---11--------11----------12-------12-------12------12--------|-------------------------------------------------------------|
------10---------10---------10---------10--------10--------10-----|------------------------------------------------------------------|----10---10---10----10---10----10---10----10---10---10---10---10--|--0---------0----------8----------8----------7---------7----------|------------------------------------------------------------------|------------------------------------------------------------------|
-------10--------10-------9-------9--------9--------9----|---------------------------------------------------------|-----9----9----9----9---9---9---9---9----9---9----9---9--|---------------------------------------------------------|--11--------11-------12------12-------10-------10--------|---------------------------------------------------------|
------8-------8-------7-------7-------7-------7----|---------------------------------------------------|----7---7---7---7---7---7---7---7---7---7---7---7--|---------------------------------------------------|--9-------9------10------10-------8-------8--------|---------------------------------------------------|
------6-------6-------5-------5-------3-------3----|--------------------3---3---3---3---2---2---2---2--|----6---6---6---6----------------------------------|------------------3-------3-------2-------2--------|--7-------7----------------------------------------|---------------------------------------------------|
------2-------2-------1-------1-------1-------1------|----3---3---3---3-------1-------1-------3-------3----|--------------------2-------2-------0-------0--------|--0-------0------------------------------------------|------------------0-------0-------2-------2----------|-----------------------------------------------------|
-------0-------0--------------------------------------|---------1-------1-----4-------4-------4-------4------|-----0-------0-------5---5-------5-------5-------5----|-----------------------------5-------3-------3--------|--3--------3-----------------------0-------0----------|-------------------5-------5--------------------------|
----------------------------------------------------|-------3-------3-------3-------3-------3-------3----|---------3-------3---0---0---0---0------------------|-----3-------3-----------------------3---3---3---3--|--1--------1-------1-------1-------0-------0--------|----------------------------------------------------|
---------------------------------------------------|---------------------------------------------------|------7-------7-------7-------7-------6-------6----|---------------------------------------------------|----7---7---7---7---7---7---7---7---7---7---7---7--|--6-------6-------7-------7-------7-------7--------|
------------------------------------------|-----6-5---5-----------------------5-6----|---------7---7-5-7-5---5-------5-7--------|--0------------------8---8-7-8------------|--0------------------------------------5--|--0---------------------------------------|
-------------------------------------------------------|-------------------------------------------------------|---------9-7---7---------------------------7--8--------|------------10--10-8-10-8-7-8-7---7--8--10-------------|-------------------------------10----------------------|--10----------------------------------------------10---|
----------------------------------------------|----------------------------------------------|---------7-5---5-----------------------5-7----|-------------8---8-7-8-7-5-7-5---5-7-8--------|-------------------------------8--------------|--8----------------------------------------8--|
--------------------------------------|---------------------------|--------------------------------------|---------------------------|------4-6-7-------4-6-7-----7-6-4-6---|----------------2-3-2-3----|----7-----------7-------------------5-|--3-2-------3-5---------5--|--0---------0-------------0-----------|------5-4-5----------------|--------------5---------5-------------|---------------------------|
-----------------|--1---------------|--------------------------|--5----5------5--|--3----3------3---|--11-------10--------8----|--3----2---------|--2----3----------|--7---------7--------6----|--5----5---------|--0----3----------|--8---------7--------7----|--5----4---------|-------1----------|--7---------8--------7----|-----------------|------------------|--------------------------|
--3-----2-------1--|--1----0----------|------------------|--3-----3-------3--|--3----1-------4--|--4----3-------3--|--2-----2-------2--|--0----0-------0--|--5----3-------3--|--0-----0----------|------------------|--3----3-------3--|--0----------3-----|--2----3----1-----|--0----1----0-----|--0----------------|------------------|------------------|
-----------------------|-----------------|------------------|------------------|--------2tr3--2-----3--|--3--------------|------------------|------------------|-----7--2--------------|-----------------|------------------|------------------|-----9--2--------------|--0----4--5------|--2----4--5-7-----|-0----2------4-5--|-----7--0--------------|-------5---------|--4----0----------|-2----2-----------|--6--------------------|--0--------------|------------------|------5-----------|
-------------------|-------------------|----------------------|-------------------|-------------------|----------------------|-------------------|-------4-----------|----------------------|--4--2--2-------4--|--4----4--7-5---4--|--2-----4-5-7-5-4--2--|--0-----4----0-----|--5----5--------5--|--4--2--0----------0--|-------------------|--0----------------|----------------------|
---------------------|-------------------|--------------------|---------------------|--2--3-------------|--------------------|---------------------|--0-------------2--|-----------------1--|--0-----2--5-4-2--0--|-----4--2----------|--4--2--0--2--4--0--|--2--0--2---------2--|--0-----0----0-----|--------------------|--------5---------5--|-------------------|--0-----------------|
--------------------|-----2--0-----------|--------------0-----|--------2--3-----2--|--3-----0--3--2--0--|-----0--2--3-----2--|--2--4--2-----4-----|--4--------------0--|--2-----------0-----|--2-----2-----------|--4-----------------|--4--0--2--4-----2--|--4-----0--------0--|--2-----------------|--0-----0--------0--|--------------------|--------5--------5--|--------------------|
--------2--------2--|--0-----5--------3--|--2--0--3--2--7--5--|--3-----3--------3--|--2--0--------0--2--|--3--2--3--3--------|-----------------0--|--2-----6-----------|--------4--2--7--4--|--4--2--0--2--4-----|-----------7--------|--------------5--4--|--------------------|--------------------|--------------------|--0-----------------|--------------------|--------------------|
--3--2--0----0---|---------------2----0--|-0------------------0--|--2--3--3----2---|-3-2---------3---5--0--|--------------------2--|--------2----0---|-----4-2-1-4--------1--|-2---------------------|--2--0-----------|--------------------0--|-------------2-5-4--4--|--------0----0---|-----------------------|-4-5-4-2-0-4--------1--|-----------------|-0---------------------|-----------------------|
------------------------|---------------7-5-------|-2-5-2--------------------|--3---------------------|---0---0---5-8-----8-7-5-|-------3---3--------------|---------------------7--|-6-------6---------------|---------2---2------------|----------------4-2-----|-----7-------------------|---------------4---4-2----|--2-4-5-2---2-5------7--|-7---------------0-------|-0---------------5-----5--|----------5----------6--|-7-----------------------|--------------------------|
----5---------------------|----4----------------------|------5-2---2-------------|------3--------------------|----------2---2-----------|--------4-1-4-1------------|----------------2---2-----|---------------------------|--4---------------4---5-4-|--2-------------5-2-5-4-2--|--------------------------|---------------------------|
--------------------------|----------------------2----|--------------------------|------------------3-----3--|--------------------------|--------------2-----2------|----------2-------2-5-4-2-|--4-------4-----4----------|--0-2-4-5---4-0-4---------|--0-5-0-5---5-----0--------|--------------------------|---------------------------|
--5-------5---9----12----14----|-----14-----------------------------|----5---5---5---10----14----14-|--15----15--12----12---------3-2----|------6------------------------|---------------11-------11-4-----4--|-------------------------------|---------------------12-------------|--0----------------0-----------|--0------------------------0--------|-------------------------------|------------------------------------|
--------------------------|------5-5-5-2------------|-----5-5-5----------------|--2-5-2-------------------|--------------3----------|-----------5-2------------|--------2---2-------------|----------------2--------|---------------2----------|----------2-----2-----2-5-|--4---------------4------|-2---------------2--------|--0-----------4---0-4-----|----5-----0---------5-0-5|---4-----0---------4-0-4--|--------------------------|--0----------------------|--------------------------|
------5-5-5-2-------4-7-4|5---5-5-5--------------|-------------------2----|--------------3---3------|--5---------5-5-5---2--|------------------3-----|----------------4--------|----------6-------2----|-----2-2-2-------2------|----------------------7--|----------------------5|-4---------4---4--------|--5-2-----0--------------|0-------------------0--|---5---------5-------2--|-------------------------|-----------------------|------------------------|
------------------------|----------------------|------------------------|------------------2-5---|----------------0-3---|------------2-5-2-------|------222-------2-------|----222-------1-------|----222----2-------2----|----2-----2---2---------|--0-----0---0-------2-|--2-----2------------5--|--4---------4---------0-|2---------2-----------|0-----------------------|------------------------|----------------------|------------------------|
----------5-5-2-2-----2-|-0----------5-5-0-0-----0-|-----------7-7-4-4-0-0-4-|--------------3-3-3-3-3-|-2--------------2-2-2-2-2-|-3-------------3-3-3-3-3-|------------------2-2---|--------------------2-2---|-1---------7-7-4-4-1-1-4-|--4---------------------|--------------------------|-----------6-6-----------|----0000----------------|---0-0-0-0----------------|---0-0-0-0---------------|------------------------|--------------------------|-------------------------|
--5------5-5-5-5-3-3-3-|-2--------------------|---------10-10-10-10-8-8--8---|---------------0-3-5-5-|-3------------0-0-2-2-|--3------7--7---7-8--8-10-10--|--6------6-6-6-7-4-6-6-|--------2-2-2-2-0-0-0-|---------7--7---7-9--9-11-11--|--7------7-7-7---------|---0000-4-4-4-4-2-2-2-|--4---------------------------|----0000---------------|------5---------------|------------------------------|-----------------------|------0---------------|----0000----------------------|
--7------------7-7--7--9-10-10-10-|-----0--0--0--0-----------------|--8------------8-8--8--8-7--7--7--|--8--------------7-7-7-5-5-5-5--|-----------------11-11-9-7--7--7--|--11-12-12-12-11-7-7-7-7-6-6-6--|----0-0--0--0---------------------|--9--11-11-11-12-------5-5-5-5--|----------------------------------|-----------------9-9-9---0-0-0--|----0-0--0--0---------------------|--------------------------------|
--2----2------2--|--2-----0-----------|---------------------|--3----3---------|--3--5--3--2-----5--|--5--3--0------------|--2--------------|--2-----2-----4--3--|--4-----5--------5---|-------0---------|-----------------4--|--4--------7--5--4---|-----------------|--------------------|--2--------------5---|--0--------------|--------------------|---------------------|
-----------7--5--3--|--2-----2--------2--|--0-----0--------0--|-----------------2--|--3-----3--------3--|--3-----2--------2--|--5--4--6--0--4-----|--------4--2--------|--0-----2-----------|-----------7--4--2--|--0--4--------5--4--|-----2-----5--4--2--|--5-----------------|--------------------|--------------------|--5-----------------|--------------------|--------------------|
--5--2--7--5--3--2--|--0---------------|-----------------|-----------------|-----3--------0-----|-----3--2------3--|--3--------------|-----------------|--5-----7--5-----2--|--0-----2---------|-------2------2--|--2----2------2--|--4--0--0-----------|-----4--2---------|--4----4------4--|--4----4------4--|--------------------|--------0---------|--0----5------5--|--3----3------3--|--------5-----------|-----5------------|-----------------|-----------------|
-----------------|-------------------|-------2------2--|--2----2------2--|--0----0------0--|-2--3--3--------2--|--3----3------3--|--3----3------3--|--0----0------0--|-0-----------------|-------2------2--|--2----2------2--|-------2------2--|----4--2--0--2-----|--0----0------0--|-----------------|--2--------------|-0-----0-----------|-----------------|--3----3------3--|-----------------|-------------------|--0--------------|-----------------|
--2--------------|--------------------|------2------2--|3--5----5--|--3----5------5--|--5--3--3--------2--|3-----3------3--|3--3----3--|--0----2------2--|--------------------|------2------2--|0--2----2--|-------5------5--|--------2--4--5-----|4--2--0------0--|2--4----4--|--2----4------4--|--5-----0-----------|----------------|-----------|-----------------|--------------------|0---------------|-----------|
--7----7------7--|--9--10--10-----9----|----10-------10---------10----|--0----5------5--|-----7---8------8----|-----7--------7----------7----|--7----4------4--|--9------9------9----|-----7--------7----------7----|--5----6------6--|--7------------------|-----0------------------------|-----------------|---------0------0----|------------------------------|-----------------|---------------------|--------------0----------0----|
--9---8----8-------|--7---------------|--0--2-3-----7--5-----3--|--8---7----7-------|--8-----5------5--|--3----2--------------2--|--9---7----7-------|--7--7--7---------|--2----2--------------2--|-------------------|------------------|-------------------------|--0----------------|--------7---------|--0----0--------------0--|------0----0-------|--5-----6---------|-------------------------|
-2-----2-2-------2-2---|----2-2----2-2-------2-2------|-3---------------------|----0-0----0-0-------0-0------|-2-----2-2-------2-2---|------------------------------|-0--0------0--0------0-|--0-----0------0-0-------0----|--------------4------4-|--2-----2------2-0-------0----|-----------------------|------------------------------|
-----0-0--------5-5---------------|-----7-7--------0-2------3-3---|-----0-0--------------------------|----------------3-3------2-2---|----------------6-6--------6-6----|-----7-7-----------------------|----------------------------------|-------------2------2-2------2-|--5-------5--7-------7--7--7-7--7-|--7-------7--0------0-0------0-|--5-------5--5-------5--5-------5-|--5-------5--------------------|
----2-2-----2---2----2-2---|-------------0----0-----0-0----|----3-3-----3---3----3-3---|----7-7------0-----------------|----2-2---2---4---5------5-|----4-4-----------6-----7-7----|-0------0-0---0---0------0-|-0------0----------------------|-0------0-0-------0--------|-----------7----7----7-------7-|-0------0-0-------0--------|-5------5--5----5----6-------6-|
-----0-0-------0----0----0-0-------|-7------------|-----------------|-----3-3-------2----2----2-2-----3-|---2tr3--2-3--|--3--------------|----------------------0------0---4-|-7-2----------|-------3------3--|--2-------2--2----4--------------4-|-0-2----------|--0----3---------|--0-------0--0----0---1------1---2-|---0----------|-------5---------|-----------------------------------|-5------------|--0--------------|
------0---------------|----------------------|----------------------|----------------------|------3---------------|------5-2-------------|--3-----3-0-2------2--|--2-----2---0------0--|--0-------2-3------2--|--2-----------2----2--|--0-------4---0-------|--2-----------5----2--|--3-------------3--3--|--1-------------1-----|--0-------------4--4--|----------------------|----------------------|----------------------|
------------------------|-----------------------|----------------------|------------3-2-3-5-6---|-6---------4-3-4-------|-4--2-3---------------|----------2-------------|---------3-------5-----|--------2-3-----------|--3-----3-------------7-|-7-----5-----------3---|-3----------4-5-----5-|------5-----------------|-5---5---------------0-|-1--------------5-6---|--0---------------------|-5---------------------|----------------------|
------------------3---|--------3-1---------------|--------5-3----------------|--2--3--3-----2-5-----|------2-----3-2-3---3-2-3-|------2-----3-2-3---3-2-3--|--0---------4-------2-|----2---------------------|---------------------------|-----3--2-------------|------------------0-------|--2-5-------------2--------|--0-----0-------------|--------------------------|---------------------------|-----5----------------|--0-----------------------|---------------------------|
--------6-5---------------|--------6------------------|------2-----3-2-3---3-2-3-|------3---5-3-2-3---3-2-5--|----2---------------------|----3----------------------|--3---------------3-------|--5------------------------|--------------------------|------------------0--------|--------------------------|---------------------------|
--1---------------------1-|--0------------------------|----3-----------------3---|----1-----------------1-4--|------2-0---2-------0-----|------0-----0--------------|----------3---0-----------|--------3-2---------3------|----------------3-2-------|--------------3-1-0--------|--0-----------------------|---------------------------|
--------------------------|---------------------------|--3-----------------------|---------------------------|----3-------------------3-|--2-----3------------------|------3-----3---------2---|----3-----5-2---2---5-3-2--|--------6-5---1-0---4-----|------5-------4---0--------|------------------5-------|---------------------------|
-------------------------------|----------------3-5------------|------------6-8-10-11----------|------------5-6----------------|--------6-7--------------------|------2-3-5--------------------|--0-7-9--------------5-3-2-3-5-|----5---------------3-2---2-3--|-------------------------------|--3---------------------5------|--0----------------------------|-------------------------------|
----10-8---8-10----------------------------------|--------11------8-11-10-8-10-11------------------|--------------------------------9-12-10-9-10-12--|-------------------------------------------------|-------------------------------------------------|--8----------------------------------------------|
----------------------------------------------|---------------------------|--2-5-3-2-3-5-2-------------------------------|---------------------------|------------------3-2---2-3-------------------|----2-2-2-3-2-2-2---2---2--|----------------5-----5-----5-2-------2-3-5-2-|--3---------------5---3----|--------------------------------5-4-5---------|--0------------------------|----------------------------------------------|--0------------------------|
--------------------------|--------------------------|--------------------------|--------------------------|----2-3-2-2-2--2---2---2--|----2-2-2-0-2---2---2---2-|--2-----------5---3---2---|--0-----------3---2---0---|--3-----------------------|--1-----------------------|--------------------------|--------------------------|
--------------------------|---------------------------|--------------------------|---------------------------|----2---2---2-3-2-2-2---2-|----2-2-2---2---2---2---2--|--2---3---5-----------5---|--3-------6---5---4---3----|--0-----------------------|--5------------------------|--------------------------|--0------------------------|
--------------------------|---------------------------|--------------------------|---------------------------|----2---2---2---2---2---2-|----2---2---2---2---2---2--|--2---5---4---3---2---1---|--0---2---3---4---5---6----|--3-----------------------|--1------------------------|--------------------------|---------------------------|
--------------------------|---------------------------|------------------0---2---|--3---1--------------------|--2-2-2-2-2-2-2-2---2---2-|----2---2-3-2-3-2-3-2-3-2--|------------------0---2---|--3---0---5---3---2---0----|--0---2---3---4-----------|---------------------------|--------------------------|---------------------------|
--------------------------|---------------------------|--------------------------|---------------------------|--3-2-3-2-2-2-2-2-2-2-2-2-|--2-2---2-0-2-0-2-0-2-0-2--|--2-------3---2---0-------|--0-------2---0------------|------3---------------3---|------2-----------4---2----|--------------------------|---------------------------|
--------------------------|----------------------1-----3-----6--|--------------------------|----------------3---3-----3-----3----|--0-2---2-2-2-0-2---2---2-|----2-----2---2---2-----3-----0------|
------2-----------3---2---|--3-----3---3------------------------|--4---4---4---0---2---4---|--5---5------------------------------|--------------------------|--0----------------------------------|
------6-----------------0-----1-----5-|------5-----------------------------3--|------------------1---1-----1---------|------------------------3-----4--------|----5-------0---0---0-----2-------5---|----3-------------3---3-----3-----3----|--2-------2---2-----------------3-----|------------3---3---3-----5-----1------|--------3-----------------------------|--5-------5---5------------------------|--------------------------------------|--------8------------------------------|
------6-----5-----3-----1-----0-----0|---------------------------------------------|----------3-----5-----3-----3-----2--|--10-8---------------------------------------|----6---------------1-----2----------|-------10-10--9-7-7-------------------7-9--10|--------3-----5----------------------|0-------------------10--8-8-7----8-10--------|--7-----------------------------0----|0-----------------------------10-------------|-------------------------------------|0--------------------------------------------|
----------------------------------------|------------------------------------------|--8-------------------------------------|------------------------------------------|----10-9-9-7-------------------------7-8|-10--8-7-7--------------------------------|-------------10-10-8-7-7------7-8-10----|-----------10-8-8-7-----------------------|-------------------------10-8-----------|--------------------10-10-8-7-7-----------|10--------------------------------------|8-------------------------------12-11-11-9|
----------------------------3-------------------|-----------------|--------------------2-3-5-6---6-5-3-2-----------|-----------------|----------------2-4-------------------4-2-------|-------2------2--|----------2-3-5---------------------------5-3-2-|--0----3------3--|--0-2-4-5---------------------------------------|-------5------5--|------------------------------------------------|--0--------------|
-----------------|--1-------------------|---------------------|--5----5------5--|--3-------3-----------|---------------------|--3----2------2--|--2-------3--------5--|--3----2----0--------|--5----5------5--|----------3-----------|--5----3------3-2-3--|--5----4------4--|----------1-----------|-------0----4--------|-----------------|--0-------------0-----|--5------------------|
--------------------|-----------------|------------------------|--------------------|--3--------------|------------------------|--0-------3----2----|--0----5----3----|--------------9---------|----2-3---3----4----|--0----4----5----|-----5-8-7-5-------0----|--0-----5-5----3----|--1----0----5----|--4-7----------10--8----|--0-----------------|------------5----|-------------------0----|
-----------------------|---------------|--------------||-----------------------|---------------|--------------||-----------------------|---------------|--------------||--3--2--2tr3---2-------|--0------------|--------------||--------0-----------5--|--5------------|--------------||--5--------------------|--0------------|--------------||
Mark Michaelson Classical/Flamenco Guitarist MarkMichaelsonNY@aol.com ****************************************************************************** ****************************************************************************** Chaccone - Johann Sebastian Bach A grand piece that doesn't need any introduction. Probably Bach's most common piece to find in a classical guitarists repertoire. Beautiful, yet playable. Good luck! Comments? arr Roger Margido Proeis - iactive@online.no [no longer active - January 2010] updated by Curzio Vasapollo (27 January 2002) 3/4
E||----------------|--0----0------0--|--1--------------|--------------------|B||----------------|-----------------|--3----3---------|--------------------|G||------2------2--|--3----2------2--|--2----3------5--|--3----2----0-------|D||------3------3--|--5----5------5--|--0----3---------|--5----3------3-2-3-|A||------5------5--|--5----4------4--|-------1---------|-------0----4-------|D||----------------|-----------------|-----------------|--5-----------------|
--------------------|--0----0------0--|--1----------------|--------------------|-----------------|--3----3-----------|--0-------2------2--|--3----2------2--|--2----3------7----|----2-3-0-3------3--|--5----5------5--|--0----3-----------|--0-------5------5--|--5----4------4--|-------1-----------|--0-----------------|-----------------|-------------------|
--6-----------5---3-1-3---0-----|------1-------------------|--------------------------2-----|------3-------------------|--7-----------6-----------2-----|------2---------0-2-3---2-|--------------7-----------------|------0---2-3-----------3-|--7-----------7-----------------|------0-----5-----------5-|--5-----------7-----------------|------0-------------------|
--0-----0---------0-|--0---------1-0-----|------------------5-----|--------------------|--------3---------3-|--3-----2---------------|--3-----2---3-2---2-|--2---------2-0-----|--------2---0-----6-----|--5---3-5---------5-|--3---2-3---------3-|--2---0-2-----3---7-----|--5-----4---------4-|--5-----1-----------|--0-----0---------0-----|--------------------|------------------5-|------------------------|
--1-------------------------|--0-----0-----------|--0---------1-0-----|--3-------------------------|--------------------|--------3---------2-|--2---------------0-2-3---2-|--3-----2---3-2---0-|--2---------2-0-----|--0---------2-3-------------|--5---3-5-----------|--3---2-3---------2-|--0-------------------------|--5-----4-----------|--5-----1---------1-|--0-------------------------|--------------------|--------------------|
------0------------|------0-1---3-5-6------|--0---6-5---3-5----2-|--3-----3----2---3-|--3------------------6-|-------------------1-|------0-2----2-----|---------------------7-|--6-----5------------|--3-----2----2-----|--0--------------------|---------------------|--0-----0----0-----|-----------------------|---------------------|------5------------|--0--------------------|---------------------|
--3---1-0-----------0-|--1---3-0---1-3---0-|--1-----0-1----3-5-6-----|--0---------3-2-3-----|------0-2---3-5---2-|--3---3----------------6-|--------3-----------3-|--2-----------------|-----------------------7-|----------------------|--------------------|-----------------------6-|----------------------|--------------------|-------------------------|----------------------|--------------------|--0----------------------|
--0---6-5---3-5---2-|--3---1-0----------0-|--1---3-0-------------|------------------1-|--0---------3-2-3----|--3-----3---2-0-2-----|--6-----5---------2-|--0-----3------------|--2-----2-----------0-|--7-----4-----------|---------------------|----------------------|--------------------|---------------------|--0-----0-----------0-|--------------------|--------5------------|----------------------|
--------0-----------|---------------------|----------------------|-----6-----3--2--3--|---------------------|------------------3-2-|--------------------|--0--2-3----3--2--0--|-----0-2-------0------|--3-----------------|--0------------------|--3---------0---------|--5-----------------|---------4-----------|--5------1------------|--0-----0-----------|---------------------|----------------------|
-----------------------|-------1-1-0-3-1-0-------|---------------------0---|-3---------------------|-----3-------------3-2-3-|-------------------------|-----------0-3-2-0-----|---2---------------------|-0-3---0-----0-3-2-0---0-|----3--2-3---------3-2-|-3-------0-----------0---|-----4-----2-------------|-------0---------------|-------------------------|---------4---------------|----5------------------|-0-----------------------|-0-------0-----------0---|
--------------------------|--------1-0-3-------------|-----1--6--5--4-----|--------------------4-2-3-|----0-3-------2-3-----3-2-|--3-----6--6--6-----|--------------0-2-3-------|--1-----------------------|--------7--7--7-----|--3---0-----0-------------|--------------------2-----|-----------------6--|----4---0-1-----------0---|--2-------1-------0-------|-----------------5--|--0---------------5-------|--------------------------|--0-----------------|
-----0--5--3--2-----|--------3--1--0-----|----1-0---------0-----|--------5--4--4-----|-----3--3--2--2-----|--------3-2-----------|--2-----5--5--5-----|--0-----3--3--3-----|-------------2-----0--|--2--------------4--|--0--------------2--|--3-------------------|--4--------------3--|--2--------------1--|--0-------0-----------|--------------------|--------------------|----------------------|
------------1-6-5-4-7-4-0-|----0-5-3-2-5-2-----------|----------3---------------|--2-------------1---------|--------2-----------------|------------------2-------|--3-0-3-------0---2-------|----------0---------4-0---|--------------------------|--0---------------------3-|--0-----------------------|------------------0-------|
------------------6-5-4-5-|--------------------------|------------4-3-2---------|--6-5-3-------------------|------0---0---------------|--------5-3-2-1-2---0-----|----0---4-----------------|----------------------3-2-|--2-------1---------------|----------0-------4-------|--------------------------|--5-----------------------|
--------------------------|--------------------------|--------------0-2-3-------|------3-2-------1-1-------|----------0-2-------------|--------------2-----3-5-2-|--3-0-2-3-----------3---0-|----2-----0-4-------------|----------------------7---|--0-----------------------|--0-------0-----------6---|----------0-----------4---|
--------------------------|----0---------------------|----------------------4-3-|--2---------3---------3-2-|--3-0---------------0-----|------2-0-----------------|------3-1-0---------------|----------3---2-0---2-----|------------3-1-0---------|--0-------0-------0-------|--5---------------5-------|--------------------------|
--3-0--1---------------------|--------------------------|---------2-3-1---------------|--------------------------|----------------3-2-0--------|----3-2-0-----2-----------|----------------------3-2-0--|----------4-0---0---------|-----------------------------|--4---------------3-1-3-0-|--0--------0-----------------|--0-------0---------------|
--------------------------|---------------------------|--------------------------|---------------------------|------------------0-2-3-2-|--1-2-----0----------------|------------0-2-4---------|------2-3-----0-----3-2----|--1---0-1-3---------------|------------4-----0-----4--|----5---------------------|----------------6----------|
--------------------------|--------------------------|----3---------------3-----|----1---------------1-----|------2-0-------------0---|------0-------------------|--0-------3-2-0---------3-|--2-----3-2-0---------3-1-|----------------3-1-------|--3-----------3-1-0-------|--0-----------------------|--------------------------|
--------------------------|-------------------0-------|--------------------------|-----------------2---------|----3---------------3-----|-----------2---2-----0-2---|--0---3-1-0-----------1-0-|---------2---2-----------2-|--1---------3-1-0---------|--4--0-4-------------------|------------------5-------|--7------------------------|
----------------1---3-5-6-|----------------0---1-3-5-|----------3---3-----------|--5-------1---1-----------|--------2---2-----3-------|--------0---0-----2-------|--3-0-3-------------------|------2-------------------|--0-----------------------|----3---------------------|--------------------------|--------------------------|
-------------------0-1-3-|--------0-5-0-5-9-12-------0-|---------------------|-3-------------3---------|--2---2----------------------|-6--------6--8-------|---------3---3---0-------|----2----------------12-10---|-7--------7----------|-----0-3---3-------------|-----------------------------|----7--0-----8-7-8-5-|---1---------------------|--0---------------0----------|---------------------|-------------------------|-----------------------------|-0-------------------|
----------------------|--------------0-------|--------------5---5-3-5-0-|--5--------5--6-------|----------------------|------3---3-2-3-0---------|--5--------5----0-----|--7--------7--0---0---|--2---------------6-------|-----5--------7---7---|--8--------8--------2-|--3-2-3-0-2---------------|--------3-----------8-|-----8----------8-----|--0-------0-------0-------|----------------------|--------8-------------|--------------------------|
--1---------------------6-|--0---------------------5-|--3-2-3---3-----------3---|------1---1-----------1---|--------2-----------0-----|--5-3---0-----------------|----------3-2-3-0---------|----------2-0-2-----3-----|------------------1-------|----------------3-0-------|--0-----------------------|--------------------------|
------------------------3-|--------3-------1-------0-|--3-------------------0---|------2-------3-------2---|----------3---------------|--------------------0-----|--3-1-3-0-0---0-----2-----|----2-------3-------------|------------3---1---------|--0-------0-------0-------|------------------5-------|--------------------------|
----------------------------------|----------------------------------|--3-------------------3p1---------|----------------------------------|----2p0-------------------3-2p0---|----------------------5p3-2p0-----|--------3-2-0-------------------3-|--2-5p3-2-0-------------------3p1-|--------------3-1-0-1-------------|------------3-1-0---0-------------|--0-------------------------------|------------------5---------------|
------------------------------------|------------------------------------|------------------------3p2---------|--0-3p1-0-------------------5p3-2-0-|--1-------3-1-5p3-1-0---------------|----------------------5-------------|
------------------------------------------------|------------------------------------5p3-2p0-----|------------------0-2-3-2p0-----------------2p0-|--------------2-3-----------3-2p0---------------|--4p2-0-2-4p5---------------------4-------------|------------------------------------------------|
------------------------------------3-5-6-|------------------------------3p5-6-------|-----------2-----------2--3p5-------------|--3-0p2-3-----3--0--3---------------------|------------------------------------------|--0---------------------------------------|
--------------------------------------3-5-|--5-----------------------------3-5-6-----|-----------0-----------0--2p3-5-----------|------0-2-----2-----2---------------------|----3------------3------------------------|------------------------------------------|
------------------------------------0-1-3-|--3-----------------------------1-3-------|--------------------------0p2-3-----------|--------0--3--0-----0--3------------------|----1-3----------1------------------------|------------------------------------------|
----6-5p3-----------------------------------------|--2-------6-5p3-1---------------------------------|------------------3-2-0-----------------------0---|------------------------3-2p0-----------0-2p3---2-|--0---------------------------4-2-0p2-4-----------|--------------------------------------------------|
------------------------------3-5-6---------|--------------0-2-3-----3-5-6---------------|----------0-2-------3-5---------------------|--3-0-2p3-----------------------------------|------------------------------------5-535-1-|--0-----------------------------------------|
----------------------------0-2-3-5---------|----------------1-3-----1-3-----------------|----------0-2-3-----2-3---------------------|----0-2-4-----------------------------------|--3---------------------------------3-131-0-|--------------------------------------------|
------------------------------0-2-3-5-6-5-3-------|----------------1-3-------1-3---------------6-5-3-|----------0-2-3-----0-2-3-------------------------|----0-2-4-----------------------------------------|--1-----------------------------------------------|--------------------------------------------------|
----5-3-1-0---------------0-1-3-5-6-3-0-----------|--2---------3-2-0---0-2-3---------------2---------|------------------2-----------------------2-0-----|----------------------------------------------3-2-|----------------------------------0---------------|--------------------------------------------------|
-------0-1-------------1-|---------0---------------|-------------------------|-----3-----3-------0-3---|-------1---1---------1-4-|---------3-------------2-|---2---------3-2-1-------|-----2-------2-0---2-----|
Tap to rate this tab
 
# A B C D E F G H I J K L M N O P Q R S T U V W X Y Z