Johann Sebastian Bach - Jesu chords

BWV 147 - Chorale - Jesu, Joy Of Man's Desiring - Cantate 147- Johann Sebastian Bach (1685-1750)

|---------------0---|---3-2-3-----------||-------0-3-1-1---3-|-3-------3-0-----0-||---0-2-0-----------|-------------0-2---||-------------2-----|-------2-----------||-------------------|-2-----------------||-3-----------------|-------------0-----|
|-----0-------------|--------------------||-1-3---3-1-0---0---|-------------1------||-------------2---0-|---0-2-----2---4-2--||-------------------|-4-----0-4---0------||-0-----2-----3-----|-5------------------||-------------------|--------------------|
|---------------0---|---3-2-3-----------||-------0-3-1-1---3-|-3-------3-0-----0-||-4-0-2-------------|-------------0-2---||-------------------|-------2-----0-----||-------------3-----|-2-----------------||-3-----0-----------|-------------------|
|-------------------|-------3-----------||---3-1-0-----------|---0-3---3-0---0-3-||---------2-0---0---|-0-----------0-----||-2-----------0---4-|-------------0-----||-3-----4-----------|-------2---------2-||-------------------|-3-----------------|
|-------------|-------------|-------------||-0-------1---|-3-------3---|-1-------0---||-0-------0---|-2-------2---|-0-------0---||-0-------2---|-0-------0---|-2-------0---||-------------|-------------|-------------||-3---2---0---|-2---0---2---|-0---2---3---|
|-------------------|----------------------||---------------1-0-|-1-----------1--------||-2-------2-0-2-----|---2-------2---4-2----||---0-2-4-----0-----|-0---4-0-4---0--------||-------0-----------|----------------------||-2-----------------|----------------------|
|-------------|-------------|----------------|---------------0----||-0-------1---|-3-------0---|----0-1-0-------|-------0-3-1-1---3--||-0-------0---|-0-------0---|-2----------2---|-0-4-2-0------------||-0-------2---|-0-------2---|--------0-------|-------------2------||-------------|-2-----------|-3----------3---|--------------------||-3---2---0---|-----0-------|----------------|-3------------------|
|---3-2-3-----------|-----0-------------||-3-------3-0-----0-|-1-3---3-1-0---0---||-------------0-2---|-------------2---0-||-------2-----------|-------------------||-2-----------------|-0-----2-----3-----||-------------0-----|-------------------|
|-------------------|---------------0---||-------------1-----|-------0-3-1-1---3-||---0-2-----2---4-2-|-4-0-2-------------||-4-----0-4---0-----|-------------------||-5-----------------|-------------3-----||-------------------|-3-----0-----------|
|---3-2-3-----------|-------------------||-3-------3-0-----0-|---3-1-0-----------||-------------0-2---|---------2-0---0---||-------2-----0-----|-2-----------0---4-||-2-----------------|-3-----4-----------||-------------------|-------------------|
|-------3-----------|-------------|--------------||---0-3---3-0---0-3-|-0-------1---|-3-------3----||-0-----------0-----|-0-------0---|-2-------2----||-------------0-----|-0-------2---|-0-------0----||-------2---------2-|-------------|--------------||-3-----------------|-3---2---0---|-2---0---2----|
|-------------|-------------------||-1-------0---|---------------1-0-||-0-------0---|-2-------2-0-2-----||-2-------0---|---0-2-4-----0-----||-------------|-------0-----------||-0---2---3---|-2-----------------|
|-------------------|-------------|--------------||-1-----------1-----|-0-------1---|-3-------0----||---2-------2---4-2-|-0-------0---|-0-------0----||-0---4-0-4---0-----|-0-------2---|-0-------2----||-------------------|-------------|-2------------||-------------------|-3---2---0---|-----0--------|
|----------------|---------------0---|---3-2-3-----------||----0-1-0-------|-------0-3-1-1---3-|-3-------3-0-----0-||-2----------2---|-0-4-2-0-----------|-------------0-2---||--------0-------|-------------2-----|-------2-----------||-3----------3---|-------------------|-2-----------------||----------------|-3-----------------|-------------0-----|
|-----0-------------|-------------------||-1-3---3-1-0---0---|-------------1-----||-------------2---0-|---0-2-----2---4-2-||-------------------|-4-----0-4---0-----||-0-----2-----3-----|-5-----------------||-------------------|-------------------|
|---------------0---|---3-2-3-----------||-------0-3-1-1---3-|-3-------3-0-----0-||-4-0-2-------------|-------------0-2---||-------------------|-------2-----0-----||-------------3-----|-2-----------------||-3-----0-----------|-------------------|
|-------------------|-------3-----------|-------------|-------------||---3-1-0-----------|---0-3---3-0---0-2-|-3-------0---|-1-------1---||---------2-0---0---|-0-----------0-----|---------1---|-2---2-0-----||-2-----------0---4-|-------------0-----|-4-------0---|-2-------3-2-||-3-----4-----------|-------2-----------|-5---3---2---|-0-----------||-------------------|-3-----------------|-------------|-------------|
|----------------|---------0-----1-0-|-0-5-4-5-0---------||-0------1-3-0---|---1-0-1---3-3-----|-----------1---0-1-||-2----------1---|-2-----------------|-------------2-----||-0----------2---|-------3-----0-----|-------3-----2-----||-----2----------|-0-----------------|-3-----------------||----------------|-------------------|-------------------|
|-1-0---------------|---------------|-0-------0---||-----3-1-----------|-1---------3---|-1-------1---||---------4-2---2-1-|-2-----2---0---|-0-------3---||-0-----1-----2-----|-2---2-----0---|---------2---||-------------------|-0-3-------2---|-3---0-------||-------------0-----|---------------|-------------|
|--------0-1-----|---3-1-3-0---------|-------------------||-3----------3---|-1---------1-------|---1-0-1-----------||-2----------0---|-0-----------0-2-3-|-2-------2---------||-3---0------3---|-2-----2-----------|-3-----0---3-0-2-3-||------------2---|-3-----------3-----|-------------------||----------------|-------------------|-------------3-----|
|-------------------|-------------|----------|----------|--------------------||-------------------|-0-------1---|-3-----3--|-1-----0--|---------------1-0--||---------0---0-4-2-|-0-------0---|-0-----0--|-0-----0--|-2-------2-0-2------||-2---0-2---4-------|-0-------2---|-0--2-----|-------0--|---0-2-4-----0------||-3-3---3-----2-----|-------------|-2-----2--|-0--------|-------0------------||-------------------|-3---2---0---|-------0--|----2--3--|-2------------------|
|-------------------|-------------|-------------|-----------------||-1-----------1-----|-0-------1---|-3-------0---|----0-1-0--------||---2-------2---4-2-|-0-------0---|-0-------0---|-2----------2----||-0---4-0-4---0-----|-0-------2---|-0-------2---|--------0--------||-------------------|-------------|-2-----------|-3----------3----||-------------------|-3---2---0---|-----0-------|-----------------|
|-------3-----------|-1-----------0-----||---0-3---3-0---0-3-|---3-0---0-3---1---||-0-----------0-----|-------0---------2-||-------------------|-0-----------------||-------2-----------|-------2-----3-----||-3-----------3-----|-------------------|
|-------------------|-------------------||-----1-3---------0-|-1-----------1-----||---2-----4-0---0---|---2-------2---4-2-||-4-----------2-----|-----4-0-4---0-----||-0-----2-----------|-0-----------------||-------------3-----|-------2-----------|
|---------------0---|---3-2-3-----------||-------0-3-1-1---3-|-3-------3-0-----0-||-4-0-2-------------|-------------0-2---||-------------------|-------2-----------||-------------3-----|-2-----------------||-3-----0-----------|-------------0-----|
|-----0-------------|-------------------||-1-3---3-1-0---0---|-------------1-----||-------------2---0-|---0-2-----2---4-2-||-------------------|-4-----0-4---0-----||-0-----2-----3-----|-5-----------------||-------------------|-------------------|
|---------------0---|---3-2-3-----------|-------------------|-----------*||-------0-3-1-1---3-|-3-------3-0-----0-|---3-1-0-----------|-----------*||-4-0-2-------------|-------------0-2---|---------2-0---0---|-0---------*||-------------------|-------2-----0-----|-2-----------0---4-|-0---------*||-------------3-----|-2-----------------|-3-----4-----------|-2---------*||-3-----0-----------|-------------------|-------------------|-3---------*|
Tap to rate this tab
 
# A B C D E F G H I J K L M N O P Q R S T U V W X Y Z