Johann Sebastian Bach - Toccata In D Minor tab

So I heard this on Halloween and I liked it and wanted to learn how to play it on the guitar, 
and yes it has taken me this long to figure it out... well here it is, the first half anyway,
I'll be updating it as I figure out the rest, as always listen to the song first to get the 
timing

comment and let me know what you think

|17-15-17-----15-13-12---------------------------||---------------------15-14---15-----------------||------------------------------------------------||------------------------------------------------||------------------------------------------------||------------------------------------------------|
|------------------------------------------------||10-8-10-----5---6-------------------------------||--------------------6---7----------------7-5-7--||------------------------------------------------||------------------------------------------------||------------------------------------------------|
|-------------------------|----------------------||-------------------------|----------------------||-------------------------|----------------------||5-3-2--------------------|-0-----------2--------||------5-4------5---------|---------4------------||-------------------------|----------------------|
|---------------0--------------------------------||----------2-------------------------------------||-0---3------------------------------------------||------------------------------------------------||------------------------------------------------||------------------------------------------------|
|-10---------------------------------------------||-10---------------------------7-----------------||-7--------------------9-------------------------||-0----------------------------------------------||-0----------------------------------------------||------------------------------------------------|
|------------------------------------------------||----------------------6-8-5-6-8-5-6-8-5-10-11-8-||-6--7-9-6-7-9-6-7-9-6---------------------------||------------------------------------------------||------------------------------------------------||------------------------------------------------|
|---------------------------9----10-12-9-10-12-9-||10-11-8-10-11-8-10------------------------------||------------------------------------------------||------------------------------------------------||------------------------------------------------||------------------------------------------------|
|10-12-9-10-12-9-13-15-12-13-15-12-13-15-12-13-15--||--------------------------------------------------||--------------------------------------------------||--------------------------------------------------||--------------------------------------------------||--------------------------------------------------|
|-12-17-18-15-17-18-15-17-18-15-17---------------||------------------------------------------------||------------------------------------------------||------------------------------------------------||------------------------------------------------||------------------------------------------------|
|17----15-18---15-18--13-17--13-17--12-15--12-15-||-----------17------17-----15-----15-----13----13||------------------------------------------------||------------------------------------------------||------------------------------------------------||------------------------------------------------|
|10-13--10-13--10-13--8-12--8-12--6-10-6-10-5-8--||-----11-----11-----11----10----10----8----8---6-||------------------------------------------------||------------------------------------------------||------------------------------------------------||------------------------------------------------|
|5-8--5-8--3-6--3-6--1-5--1-5---0-3--0-3---------||----6---6-----5----5----3----3-----2----2-------||------------------------------------------------||------------------------------------------------||------------------------------------------------||------------------------------------------------|
|------------------------------0---3---6---------||--------------------------2---------------------||------------------0---3-------------------------||0-------------2---------------------------------||----------4-------------------------------------||------------------------------------------------|
|6----5---3--------------------------------------||-------------6---5---3--------------5-----8-----||-------------------------6---4---6--------------||------------------------------------------------||------------------------------------------------||------------------------------------------------|
|----------------------------------------------1-||---6---8---6---8---6--------5-----------------3-||----------------------------------------------2-||------------------------------------------------||------------------------------------------------||------------------------------------------------|
Tap to rate this tab
 
# A B C D E F G H I J K L M N O P Q R S T U V W X Y Z