Johann Sebastian Bach - Solfeggetio tab

Composer:J.S. Bach
Song:Solfeggettio

Here's a challenge.

|-------------------------0-------|-------0-5-8-7-5-7-5-4-2----------||-----------1-0---------0---3-1-0-|-1---1-------------------5-3-1-0--||---------2-----2-1---1-----------|---2------------------------------||-------2-----------2-------------|----------------------------------||-3-0-3---------------------------|----------------------------------||---------------------------------|----------------------------------|
|-------0-5-8-7-5-4---4-7-12-10-8-7-||-1---1-------------5---------------||---2-------------------------------||-----------------------------------||-----------------------------------||-----------------------------------|
|-8----8-12-17-20-19-17-19-17-16-14-12-10-8-7-||---10----------------------------------------||---------------------------------------------||---------------------------------------------||---------------------------------------------||---------------------------------------------|
|-8-------------------------------1-5-8-|-7------------------------------0-3-7-||---10---------10---------------3-------|---8----------8--------------1-------||------9----------9----10-----2---------|-----7----------7----7-------0---------||--------10---------10----0-3-----------|-------9----------9------2-----------||-----------12--------------------------|---------10-------------3-------------||---------------------------------------|--------------------------------------|
|-5-------5-------8--------8---------|-7-5---2-14----------11--------5--------||---7-6-7---7-6-7---10---7---10---7--|-----4------------------10---7---7------||----------------------9--------9----|------------14----11---------------8----||------------------------------------|---------------13----------9---------9--||------------------------------------|----------------------------------------||------------------------------------|----------------------------------------|
|---------------------------------|-----------3-2-------------------||-8-------------------------------|---------5-----5-7-5-4-2---------||-----------0-------------4-2-0---|-------4-----------------4-2-0---||---------2---4-2-1---1-4-------4-|-5---5-------------------------4-||-------2-----------2-------------|---7-----------------------------||---0-3---------------------------|---------------------------------|
|-----------3-2---------2-7-5-3-2-|-3---3-7-12-15-14-12-14-12-11-9-7-5-3-2-||---------5-----5-4---4-----------|---5------------------------------------||-------4-----------4-------------|----------------------------------------||-5---5---------------------------|----------------------------------------||---7-----------------------------|----------------------------------------||---------------------------------|----------------------------------------|
|-3---3-7-12-------------12----------------12-||---5--------12-------------12----------12----||---------------12-------------13----13-------||-2----------------14-------------14----------||---------------------------------------------||-0-------------------10----------------------|
|------12----------12----------------------------||-10---------------------------15----------15----||----9-------14----------13----------13----------||---------14----14----14----14----14----14----14-||------------------------------------------------||------------------------------------------------|
|-------------17------------17----------------17-||----------17----17------------17----------17----||-17----17----------17------------18----18-------||----19----------------19-5----------19----------||--0---------------------------------------------||-17----------------------3----------------------|
|-------17----------17----------------------------||-15----------------------------20----------20----||----14-------19----------19----------------------||----------19----19----19----19----19-23-19----19-||-------------------------------------------------||-------------------------------------------------|
|----0-----------------------------|-----------1-0-------------------||-18-------------------------------|---------3-----3-5-3-2-----------||--------------------------2-0-----|-------2---------------4-2-0-----||----------0-3-2-0-------2-----3-2-|-3---3-----------------------3-2-||--------0---------4---4-----------|---5-----------------------------||------1-------------5-------------|---------------------------------|
|-----------1-0-----------5-3-1-0-|-1---1-5-10-13-12-10-12-10-9-7-5-3-1-0-||---------3-----3-2---2-5---------|---3-----------------------------------||-------2-----------2-------------|---------------------------------------||-3---3---------------------------|---------------------------------------||---5-----------------------------|---------------------------------------||---------------------------------|---------------------------------------|
|-1-10-------------------------------------------||------10-------10-------------------------------||---------10-------10-------10-------------------||------------12-------12-------12-------12-------||------------------------12-------12-------12----||------------------------------------13-------13-|
|------13----------------------||---------15-14-15-17-15-14-15-||------------------------------||------------------------------||-1----------------------------||------------------------------|
|------------------------------|------19----------------------||------------------------------|------------17-18-17-15-13-12-||------------------------------|---------19-------------------||------15----------------------|------------------------------||-0-------17-16-17-19-17-16-17-|------------------------------||------------------------------|-4----------------------------|
|---12-17--------------------------------||---------17-20-18-17-15-13--12-13-12-12-||----------------------------------14----||-------------0--------------------------||-0--------------------------------------||------------------------12---0----------|
|------12----------12-----------------------------||-10---------------------------15----------15-----||----9-------14-----------------------------------||-10------14----14----14-18-14----14-18-14----14--||------------15----------14----------14-----------||-------------------------------------------------|
|-------------------------------17----------17----||-------14----------14----------------------------||-12----------12-------------17----17----17----17-||----14----14----14----14-16----------16----------||-12----------12----------17----------17----------||-------------------------------------------------|
|-------------------------------------------------||-------------------------------20----------20----||-------16----------16----------------------------||-15----------15-------------20----20----20----20-||----17----17----17----17-19----------19----------||-15----------15----------20----------20----------|
|---------------------------5-17------5-17----||-------------------------1---------1---------||-------14----------14------------------------||-13----------13----------1------19-1------19-||----15----15----15----15---------------------||-13----------13------------------------------|
|---5-8-12-17---------------------------------||-------------17-------17---------------------||-5--------------17-------17------------------||-2-----------------19-------19------21-------||-------------------------------19------23----||----------------------------------0-------22-|
|--------------------------0-------|-------0-5-8-7-5-7-5-4-2---------||------------1-0---------0---3-1-0-|-1---1-------------------5-3-1-0-||----------2-----2-1---1-----------|---2-----------------------------||--------2-----------2-------------|---------------------------------||----0-3---------------------------|---------------------------------||-20-------------------------------|---------------------------------|
|-------0-5-8-7-5-4---4-7-12-10-8-7-||-1---1-------------5---------------||---2-------------------------------||-----------------------------------||-----------------------------------||-----------------------------------|
|-------------17-20-19----------------------------||----------17----------21-22----------------------||-17----17-------------------21-------------------||----19-------------------------22-21-19----------||----------------------------------------19-------||-------------------------------------------20-19-|
Tap to rate this tab
 
# A B C D E F G H I J K L M N O P Q R S T U V W X Y Z