John Butler Trio - Damned To Hell tab

John Butler Trio- Damned To Hell (Sunrise Over Sea [2004])
Tuning- Dm (D a D F A D) 


Intro 
  
|-0---2-3---2-0---0-------|-0---2-3---2-0---0-0---0-| |-------------------3---3-|-------------------------| |-------------------------|-------------------------| |-0-----0-----0-----0-----|-0-----0-----0-----0-----| |---0-----0-----0-----0---|---0-----0-----0-----0---| |-------------------------|-------------------------|
|-0---2-3---2-0---0-------|-----------------------| |-------------------3---3-|-0---0-3---3-5---5-5---| |-------------------------|-----------------------| |-0-----0-----0-----0-----|-0-----0-----0-----0---| |---0-----0-----0-----0---|---0-----0-----0-----0-| |-------------------------|-----------------------|
|-----------------------------|-----------------------------| |-3h5---5-----0-3h5---5-----0-|-3h5---5-----0-3h5---5-----0-| |-----------------------------|-----------------------------| |-0-------0-----0-------0-----|-0-------0-----0-------0-----| |-----0-----0-------0-----0---|-----0-----0-------0-----0---| |-----------------------------|-----------------------------|
|-----------------------------|--------------------------------|| |-3h5---5-----0-3h5---5-----0-|-3h5---5-----0-3h5---5-----0----|| |-----------------------------|--------------------------------|| |-0-------0-----0-------0-----|-0-------0-----0-------0--------|| |-----0-----0-------0-----0---|-----0-----0-------0-----0------|| |---------------------------0-|--------------------------------||
Verse 1 |-0---2-3---2-0---0-------|-0---2-3---2-0---0-0---0-| |-------------------3---3-|-------------------------| |-------------------------|-------------------------| |-0-----0-----0-----0-----|-0-----0-----0-----0-----| |---0-----0-----0-----0---|---0-----0-----0-----0---| |-------------------------|-------------------------|
|-0---2-3---2-0---0-------|-0---2-3---2-0---0-0---0---| |-------------------3---3-|---------------------------| |-------------------------|---------------------------| |-0-----0-----0-----0-----|-0-----0-----0-----0-------| |---0-----0-----0-----0---|---0-----0-----0-----0-----| |-------------------------|---------------------------|
Chorus |-7---0-5---0-3-----0---0-|-7---0-3-----2---2-2---2-| |-----------------5-------|-----------5-------------| |-------------------------|-------------------------| |-0-----0-----0-----0-----|-0-----0-----0-----0-----| |---0-----0-----0-----0---|---0-----0-----0-----0---| |-------------------------|-------------------------|
|-0---2-3---2-0---0-------|-0---2-3---2-0---0-0---0----|| |-------------------3---3-|----------------------------|| |-------------------------|----------------------------|| |-0-----0-----0-----0-----|-0-----0-----0-----0--------|| |---0-----0-----0-----0---|---0-----0-----0-----0------|| |-------------------------|----------------------------||
|-----------------------------|-----------------------------| |-3h5---5-----0-3h5---5-----0-|-3h5---5-----0-3h5---5-----0-| |-----------------------------|-----------------------------| |-0-------0-----0-------0-----|-0-------0-----0-------0-----| |-----0-----0-------0-----0---|-----0-----0-------0-----0---| |-----------------------------|-----------------------------|
|-----------------------------|-----------------------------|| |-3h5---5-----0-3h5---5-----0-|-3h5---0-----5-3h5---5-----0-|| |-----------------------------|-----------------------------|| |-0-------0-----0-------0-----|-0-------0-----0-------0-----|| |-----0-----0-------0-----0---|-----0-----0-------0-----0---|| |-----------------------------|-----------------------------||
Verse 2 |-0---2-3---2-0---0-------|-0---2-3---2-0---0-0---0-| |-------------------3---3-|-------------------------| |-------------------------|-------------------------| |-0-----0-----0-----0-----|-0-----0-----0-----0-----| |---0-----0-----0-----0---|---0-----0-----0-----0---| |-------------------------|-------------------------|
|-0---2-3---2-0---0-------|-0---2-3---2-0---0-0---0----| |-------------------3---3-|----------------------------| |-------------------------|----------------------------| |-0-----0-----0-----0-----|-0-----0-----0-----0--------| |---0-----0-----0-----0---|---0-----0-----0-----0------| |-------------------------|----------------------------|
Chorus |-7---0-5---0-3-----0---0-|-7---0-3-----2---2-2---2-| |-----------------5-------|-----------5-------------| |-------------------------|-------------------------| |-0-----0-----0-----0-----|-0-----0-----0-----0-----| |---0-----0-----0-----0---|---0-----0-----0-----0---| |-------------------------|-------------------------|
|-0---2-3---2-0---0-------|-0---2-3---2-0---0-0---0----|| |-------------------3---3-|----------------------------|| |-------------------------|----------------------------|| |-0-----0-----0-----0-----|-0-----0-----0-----0--------|| |---0-----0-----0-----0---|---0-----0-----0-----0------|| |-------------------------|----------------------------||
|-----------------------------|-----------------------------| |-3h5---5-----0-3h5---5-----0-|-3h5---5-----0-3h5---5-----0-| |-----------------------------|-----------------------------| |-0-------0-----0-------0-----|-0-------0-----0-------0-----| |-----0-----0-------0-----0---|-----0-----0-------0-----0---| |-----------------------------|-----------------------------|
|-----------------------------|-----------------------------|| |-3h5---5-----0-3h5---5-----0-|-3h5---5-----0-3h5---5-----0-|| |-----------------------------|-----------------------------|| |-0-------0-----0-------0-----|-0-------0-----0-------0-----|| |-----0-----0-------0-----0---|-----0-----0-------0-----0---|| |-----------------------------|-----------------------------||
Banjo Solo |-----------------------------|-----------------------------| |-0h3---5-----0-5p3---0-----0-|-0h3---5-----0-5p3---0-----0-| |-----------------------------|-----------------------------| |-0-------0-----0-------0-----|-0-------0-----0-------0-----| |-----0-----0-------0-----0---|-----0-----0-------0-----0---| |-----------------------------|-----------------------------|
|-----------------------------|-----------------------------| |-0h3---5-----0-5p3---0-----0-|-0h3---5-----0-5p3---0-----0-| |-----------------------------|-----------------------------| |-0-------0-----0-------0-----|-0-------0-----0-------0-----| |-----0-----0-------0-----0---|-----0-----0-------0-----0---| |-----------------------------|-----------------------------|
|-----------------------------|-----------------------------| |-0h3---5-----0-5p3---0-----0-|-0h3---5-----0-5p3---0-----0-| |-----------------------------|-----------------------------| |-0-------0-----0-------0-----|-0-------0-----0-------0-----| |-----0-----0-------0-----0---|-----0-----0-------0-----0---| |-----------------------------|-----------------------------|
|-----------------------------|-----------------------------|| |-0h3---5-----0-5p3---0-----0-|-0h3---5-----0-5p3---0-----0-|| |-----------------------------|-----------------------------|| |-0-------0-----0-------0-----|-0-------0-----0-------0-----|| |-----0-----0-------0-----0---|-----0-----0-------0-----0---|| |-----------------------------|-----------------------------||
|-----------------------------|-----------------------------| |-5s7---7-----0-7s5---5-----0-|-5s7---7-----0-7s5---5-----0-| |-----------------------------|-----------------------------| |-0-------0-----0-------0-----|-0-------0-----0-------0-----| |-----0-----0-------0-----0---|-----0-----0-------0-----0---| |-----------------------------|-----------------------------|
|-----------------------------|-----------------------------| |-5s7---7-----0-7s5---5-----0-|-5s3---3-----0-3s5---5-----0-| |-----------------------------|-----------------------------| |-0-------0-----0-------0-----|-0-------0-----0-------0-----| |-----0-----0-------0-----0---|-----0-----0-------0-----0---| |-----------------------------|-----------------------------|
|-----------------------------|-----------------------------| |-5s7---7-----0-7s5---5-----0-|-5s7---7-----0-7s5---5-----0-| |-----------------------------|-----------------------------| |-0-------0-----0-------0-----|-0-------0-----0-------0-----| |-----0-----0-------0-----0---|-----0-----0-------0-----0---| |-----------------------------|-----------------------------|
|-----------------------------|-----------------------------|| |-5s7---7-----0-7s5---5-----0-|-5s3---3-----0-3s5---5-----0-|| |-----------------------------|-----------------------------|| |-0-------0-----0-------0-----|-0-------0-----0-------0-----|| |-----0-----0-------0-----0---|-----0-----0-------0-----0---|| |-----------------------------|-----------------------------||
|-----------------------------|-----------------------------| |-3h5---5-----0-3h5---5-----0-|-3h5---5-----0-3h5---5-----0-| |-----------------------------|-----------------------------| |-0-------0-----0-------0-----|-0-------0-----0-------0-----| |-----0-----0-------0-----0---|-----0-----0-------0-----0---| |-----------------------------|-----------------------------|
|-----------------------------|-----------------------------|| |-3h5---5-----0-3h5---5-----0-|-3h5---5-----0-3h5---5-----0-|| |-----------------------------|-----------------------------|| |-0-------0-----0-------0-----|-0-------0-----0-------0-----|| |-----0-----0-------0-----0---|-----0-----0-------0-----0---|| |-----------------------------|-----------------------------||
Verse 3 |-0---2-3---2-0---0-------|-0---2-3---2-0---0-0---0-| |-------------------3---3-|-------------------------| |-------------------------|-------------------------| |-0-----0-----0-----0-----|-0-----0-----0-----0-----| |---0-----0-----0-----0---|---0-----0-----0-----0---| |-------------------------|-------------------------|
|-0---2-3---2-0---0-------|-0---2-3---2-0---0-0---0----| |-------------------3---3-|----------------------------| |-------------------------|----------------------------| |-0-----0-----0-----0-----|-0-----0-----0-----0--------| |---0-----0-----0-----0---|---0-----0-----0-----0------| |-------------------------|----------------------------|
Chorus |-7---0-5---0-3-----0---0-|-7---0-3-----2---2-2---2-| |-----------------5-------|-----------5-------------| |-------------------------|-------------------------| |-0-----0-----0-----0-----|-0-----0-----0-----0-----| |---0-----0-----0-----0---|---0-----0-----0-----0---| |-------------------------|-------------------------|
|-0---2-3---2-0---0-------|-0---2-3---2-0---0-0---0----| |-------------------3---3-|----------------------------| |-------------------------|----------------------------| |-0-----0-----0-----0-----|-0-----0-----0-----0--------| |---0-----0-----0-----0---|---0-----0-----0-----0------| |-------------------------|----------------------------|
Out-Chorus |-7---0-5---0-3-----0---0-|-7---0-3-----2---2-2---2-| |-----------------5-------|-----------5-------------| |-------------------------|-------------------------| |-0-----0-----0-----0-----|-0-----0-----0-----0-----| |---0-----0-----0-----0---|---0-----0-----0-----0---| |-------------------------|-------------------------|
|-0---2-3---2-0---0-------|-0---2-3---2-0----*| |-------------------3---3-|------------------*| |-------------------------|------------------*| |-0-----0-----0-----0-----|-0-----0-----0----*| |---0-----0-----0-----0---|---0-----0--------*| |-------------------------|------------------*|
Tap to rate this tab
 
# A B C D E F G H I J K L M N O P Q R S T U V W X Y Z