John Butler Trio - Tomorrow Ill Be Home Today tab

John Butler Trio- Tomorrow, I'll Be Home Today
Tuning- Open C- CGCGCE
Capo- 2 

|-----------------|------------|-----------------|----------||-----------------|------------|-----------------|----------||-----------------|------------|-----------------|----------||-----0h4--4--2-0-|------------|-----0-4--4--2-0-|----0-----||-0h2-------------|-2--0-------|-0h2-------------|-2--------||-----------------|------------|-----------------|----------|
|-----------------|---------------|---------------|----------||-----------------|---------------|---------------|----------||-----------------|---------------|---------------|----------||-----0h4--4--2p0-|----0h4-4--2p0-|----0h4-4--2p0-|----0-----||-0h2-------------|-2-------------|-2-------------|-2--------||-----------------|---------------|---------------|----------|
|-----------------|------------|-----------------|----------||-----------------|------------|-----------------|----------||-----------------|----0-------|-----------------|----------||-----0h4--4--2-0-|------------|-----0-4--4--2-0-|----0-----||-0h2-------------|-2----------|-0h2-------------|-2--------||-----------------|------------|-----------------|----------|
|-----------------|---------------|---------------|----------||-----------------|---------------|---------------|----------||-----------------|---------------|---------------|----------||-----0h4--4--2p0-|----0h4-4--2p0-|----0h4-4--2p0-|----0-----||-0h2-------------|-2-------------|-2-------------|-2--------||-----------------|---------------|---------------|----------|
|-----------------|------------|-----3-----------|-----------||-----------------|----0-------|-2S4---2--0------|-----0-----||----------0--2-0-|-2----------|-------------0h2-|-0h2-------||-----0h4---------|------------|-----------------|-----------||-0h2-------------|------------|-----------------|-----------||-----------------|------------|-----------------|-----------|
|-3p0---------------|---------------|-----------------|-----------||-----3p2p0---------|---------------|-----------------|-----------||-----------2-------|---------------|-----------------|-----------||-------------0-2S3-|-2p0---0h2h3-0-|-------3p2p0-----|-----0-----||-------------------|-----2---------|-0h2p0-------0h2-|-0h2-------||-------------------|---------------|-----------------|-----------|
|-----------------|------------|-----------------|----------||-----------------|------------|-----------------|----------||-----------------|------------|-----------------|----------||-----0h4--4--2-0-|------------|-----0-4--4--2-0-|----0-----||-0h2-------------|-2--0-------|-0h2-------------|-2--------||-----------------|------------|-----------------|----------|
|-----------------|---------------|---------------|----------||-----------------|---------------|---------------|----------||-----------------|---------------|---------------|----------||-----0h4--4--2p0-|----0h4-4--2p0-|----0h4-4--2p0-|----0-----||-0h2-------------|-2-------------|-2-------------|-2--------||-----------------|---------------|---------------|----------|
|----------|----------|----------|------||----------|----------|----------|------||----------|----------|----------|------||-5--------|-5--------|-5--------|-5----||----------|----------|----------|------||-5--------|-5--------|-5--------|-5----|
|----------|----------|----------|------||----------|----------|----------|------||----------|----------|----------|------||-0--------|-0--------|-0--------|-0----||----------|----------|----------|------||-0--------|-0--------|-0--------|-0----|
|----------|----------|----------|------||----------|----------|----------|------||----------|----------|----------|------||-5--------|-5--------|-5--------|-5----||----------|----------|----------|------||-5--------|-5--------|-5--------|-5----|
|----------|----------|----------|------||----------|----------|----------|------||----------|----------|----------|------||-0--------|-0--------|-0--------|-0----||----------|----------|----------|------||-0--------|-0--------|-0--------|-0----|
|----------|----------|----------|------||----------|----------|----------|------||----------|-2--------|----------|------||-7--------|----------|-0--------|-0----||----------|-2--------|----------|------||-7--------|----------|-0--------|-0----|
|----------|----------|----------|------||----------|----------|----------|------||----------|----------|----------|------||-7--------|-5--------|-0--------|-0----||----------|----------|----------|------||-7--------|-5--------|-0--------|-0----|
Tap to rate this tab
 
# A B C D E F G H I J K L M N O P Q R S T U V W X Y Z