John Butler Trio - Busted tab

John Butler Trio- Busted (John Butler [1998])
Open C - CGCGCE 


 Intro 

|-----------|------------------|-------------------|---------------------| |-----------|----------0-----7s|=9---9-9-9-9-9s7---|---------0-----10s12-| |-7s===9----|-0--7s9s7---0-----|-----------------7-|---7s9s7---0---------| |-----------|--------------0---|---0---------------|-0-----------0-------| |-----------|------------------|-------------------|---------------------| |-0---------|------------------|-------------------|---------------------|
|-------: |-------: |-12----: |-------: |-------: |-------:
Verse 1 |-----------------|-----------------|-------------|----------------| |-----------------|-----------------|-------7-----|-7-7----7\------| |-7s9-(9)--9------|-9----0-7s9-7-0--|-/7----7--7--|-7-7-7--7\------| |----------0--0---|----0------------|--7-------7--|-----7----------| |-----------------|-----------------|-------------|----------------| |-0--------0----0-|-----------------|-/7----7-----|-----7-------0--|
|---------------|-----------------|-^0------/12--10----|------------------| |--------5----5-|-----5-----5-----|-^0----0---------12-|-12----12---------| |-3s5----5--5---|-5-----5-----5---|-^0-----------------|----12-12---------| |-3s5-------5---|---5-----5-----5-|-^0--0--------------|---------------0--| |---------------|-----------------|-^0-----------------|------------------| |--------5------|-----------------|-^0-----------------|-------------0----|
|-----------------|-----------------|-------------|----------------| |-----------------|-----------------|-------7-----|-7-7----7\------| |-7s9-(9)--9------|-9----0-7s9-7-0--|-/7----7--7--|-7-7-7--7\------| |----------0--0---|----0------------|--7-------7--|-----7----------| |-----------------|-----------------|-------------|----------------| |-0--------0----0-|-----------------|-/7----7-----|-----7-------0--|
|---------------|-----------------|----------------|---------------| |--------5----5-|-----5-----5-----|---------9------|-------7-------| |-3s5----5--5---|-5-----5-----5---|-5s9--9-----9---|-7--------7----| |-3s5-------5---|---5-----5-----5-|-5s9----------9S|=7--7-------7S=| |---------------|-----------------|----------------|---------------| |--------5------|-----------------|-5s9------------|-7-------------|
|--------------|-----------------|----------------|-----------------| |-------5----5-|-----5-----5-----|---------9------|-------7-7-------| |-5--------5---|-5-----5-----5---|-5s9--9-----9---|-7---------7-----| |-5--5---------|---5-----5-----5-|-5s9----------9S|=7--7--------7S==| |--------------|-----------------|----------------|-----------------| |-5------------|-----------------|-5s9------------|-7---------------|
|--------------|-----------------|----------------|---------------| |-------5----5-|-----5-----5-----|---------9------|-------7-------| |-5--------5---|-5-----5-----5---|-5s9--------9---|-7--------7----| |-5--5---------|---5-----5-----5-|-5s9--9-------9S|=7--7-------7--| |--------------|-----------------|----------------|---------------| |-5------------|-----------------|-5s9------------|-7-------------|
|-0----0-/12--------|-------------------------| |-0-----------12----|------12-------12--------| |-0--------------12-|-(12)----12-------12-----| |-0--0--------------|------------12-------12--| |-0-----------------|-------------------------| |-0-----------------|-------------------------|
|--------14s12-------|------------------| |------0-------12----|---12-----12------| |-----------------12-|----------------0-| |----0---------------|------12------0---| |--------------------|------------------| |-0------------------|-0--------12------|
|----------------|---0-----0-------|-------------------|-----------------|| |--------------0-|-----0-----0-----|-------0-----0-----|-0-----0---------|| |----------------|---------------0-|-7s9s7---0-----0---|---0----------0--|| |------0-5s7-0---|-------0---------|-----------0-----0-|-----0------0----|| |----------------|-----------------|-------------------|-----------------|| |-0--0-----------|-0-----------0---|-------------------|---------0-------||
Verse 2 |-----------------|-----------------|-------------|----------------| |-----------------|-----------------|-------7-----|-7-7----7\------| |-7s9-(9)--9------|-9----0-7s9-7-0--|-/7----7--7--|-7-7-7--7\------| |----------0--0---|----0------------|--7-------7--|-----7----------| |-----------------|-----------------|-------------|----------------| |-0--------0----0-|-----------------|-/7----7-----|-----7-------0--|
|---------------|-----------------|-^0------/12--10----|------------------| |--------5----5-|-----5-----5-----|-^0----0---------12-|-12----12---------| |-3s5----5--5---|-5-----5-----5---|-^0-----------------|----12-12---------| |-3s5-------5---|---5-----5-----5-|-^0--0--------------|---------------0--| |---------------|-----------------|-^0-----------------|------------------| |--------5------|-----------------|-^0-----------------|-------------0----|
|-----------------|-----------------|-------------|----------------| |-----------------|-----------------|-------7-----|-7-7----7\------| |-7s9-(9)--9------|-9----0-7s9-7-0--|-/7----7--7--|-7-7-7--7\------| |----------0--0---|----0------------|--7-------7--|-----7----------| |-----------------|-----------------|-------------|----------------| |-0--------0----0-|-----------------|-/7----7-----|-----7-------0--|
|---------------|-----------------|----------------|---------------| |--------5----5-|-----5-----5-----|---------9------|-------7-------| |-3s5----5--5---|-5-----5-----5---|-5s9--9-----9---|-7--------7----| |-3s5-------5---|---5-----5-----5-|-5s9----------9S|=7--7-------7S=| |---------------|-----------------|----------------|---------------| |--------5------|-----------------|-5s9------------|-7-------------|
|--------------|-----------------|----------------|-----------------| |-------5----5-|-----5-----5-----|---------9------|-------7-7-------| |-5--------5---|-5-----5-----5---|-5s9--9-----9---|-7---------7-----| |-5--5---------|---5-----5-----5-|-5s9----------9S|=7--7--------7S==| |--------------|-----------------|----------------|-----------------| |-5------------|-----------------|-5s9------------|-7---------------|
|--------------|-----------------|----------------|---------------| |-------5----5-|-----5-----5-----|---------9------|-------7-------| |-5--------5---|-5-----5-----5---|-5s9--------9---|-7--------7----| |-5--5---------|---5-----5-----5-|-5s9--9-------9S|=7--7-------7--| |--------------|-----------------|----------------|---------------| |-5------------|-----------------|-5s9------------|-7-------------|
|----------|----------|----------|------|| |----------|----------|----------|------|| |----------|----------|----------|------|| |----------|----------|----------|------|| |----------|----------|----------|------|| |-0--------|-0--------|-0--------|-0----||
Bridge |-0--0-0-(0)-0-0-0-0-|-0--0-0-(0)-0-0-0-0-0-| |-0--0-0-(0)-0-0-0-0-|-0--0-0-(0)-0-0-0-0-0-| |-2--2-2-(2)-2-2-2-2-|-2--2-2-(2)-2-2-2-2-2-| |-2--2-2-(2)-2-2-2-2-|-2--2-2-(2)-2-2-2-2-2-| |-2--2-2-(2)-2-2-2-2-|-2--2-2-(2)-2-2-2-2-2-| |-2--2-2-(2)-2-2-2-2-|-2--2-2-(2)-2-2-2-2-2-|
|---0--0-0-(0)-0-0-0-0-|-0--0-0-(0)-0-0-0-0-0----| |---0--0-0-(0)-0-0-0-0-|-0--0-0-(0)-0-0-0-0-0----| |-2s5--5-5-(5)-5-5-5-5-|-5--5-5-(5)-5-5-5-5-5S===| |-2s5--5-5-(5)-5-5-5-5-|-5--5-5-(5)-5-5-5-5-5S===| |-2s5--5-5-(5)-5-5-5-5-|-5--5-5-(5)-5-5-5-5-5S===| |-2s5--5-5-(5)-5-5-5-5-|-5--5-5-(5)-5-5-5-5-5S===|
|-0--0-0-(0)-0-0-0-0-|-0--0-0-(0)-0-0-0-0-0-| |-0--0-0-(0)-0-0-0-0-|-0--0-0-(0)-0-0-0-0-0-| |-2--2-2-(2)-2-2-2-2-|-2--2-2-(2)-2-2-2-2-2-| |-2--2-2-(2)-2-2-2-2-|-2--2-2-(2)-2-2-2-2-2-| |-2--2-2-(2)-2-2-2-2-|-2--2-2-(2)-2-2-2-2-2-| |-2--2-2-(2)-2-2-2-2-|-2--2-2-(2)-2-2-2-2-2-|
|---0--0-0-(0)-0-0-0-0-|-0--0-0-(0)-0-0-0-0-0----| |---0--0-0-(0)-0-0-0-0-|-0--0-0-(0)-0-0-0-0-0----| |-2s5--5-5-(5)-5-5-5-5-|-5--5-5-(5)-5-5-5-5-5S===| |-2s5--5-5-(5)-5-5-5-5-|-5--5-5-(5)-5-5-5-5-5S===| |-2s5--5-5-(5)-5-5-5-5-|-5--5-5-(5)-5-5-5-5-5S===| |-2s5--5-5-(5)-5-5-5-5-|-5--5-5-(5)-5-5-5-5-5S===|
|-0--0-0-(0)-0-0-0-0-|-0--0-0-(0)-0-0-0-0-0-| |-0--0-0-(0)-0-0-0-0-|-0--0-0-(0)-0-0-0-0-0-| |-2--2-2-(2)-2-2-2-2-|-2--2-2-(2)-2-2-2-2-2-| |-2--2-2-(2)-2-2-2-2-|-2--2-2-(2)-2-2-2-2-2-| |-2--2-2-(2)-2-2-2-2-|-2--2-2-(2)-2-2-2-2-2-| |-2--2-2-(2)-2-2-2-2-|-2--2-2-(2)-2-2-2-2-2-|
|---0--0-0-(0)-0-0-0-0-|-0--0-0-(0)-0-0-0-0-0----| |---0--0-0-(0)-0-0-0-0-|-0--0-0-(0)-0-0-0-0-0----| |-2s5--5-5-(5)-5-5-5-5-|-5--5-5-(5)-5-5-5-5-5S===| |-2s5--5-5-(5)-5-5-5-5-|-5--5-5-(5)-5-5-5-5-5S===| |-2s5--5-5-(5)-5-5-5-5-|-5--5-5-(5)-5-5-5-5-5S===| |-2s5--5-5-(5)-5-5-5-5-|-5--5-5-(5)-5-5-5-5-5S===|
|-0--0-0-(0)-0-0-0-0-|-0--0-0-(0)-0-0-0-0-0-| |-0--0-0-(0)-0-0-0-0-|-0--0-0-(0)-0-0-0-0-0-| |-2--2-2-(2)-2-2-2-2-|-2--2-2-(2)-2-2-2-2-2-| |-2--2-2-(2)-2-2-2-2-|-2--2-2-(2)-2-2-2-2-2-| |-2--2-2-(2)-2-2-2-2-|-2--2-2-(2)-2-2-2-2-2-| |-2--2-2-(2)-2-2-2-2-|-2--2-2-(2)-2-2-2-2-2-|
|---0--0-0-(0)-0-0-0-0-|-0--0-0-(0)-0-0-0-0-0----|| |---0--0-0-(0)-0-0-0-0-|-0--0-0-(0)-0-0-0-0-0----|| |-2s5--5-5-(5)-5-5-5-5-|-5--5-5-(5)-5-5-5-5-5S===|| |-2s5--5-5-(5)-5-5-5-5-|-5--5-5-(5)-5-5-5-5-5S===|| |-2s5--5-5-(5)-5-5-5-5-|-5--5-5-(5)-5-5-5-5-5S===|| |-2s5--5-5-(5)-5-5-5-5-|-5--5-5-(5)-5-5-5-5-5S===||
|-0--0-0-(0)-0-0-0-0-|-0--0-0-(0)-0-0-0-0-0-| |-0--0-0-(0)-0-0-0-0-|-0--0-0-(0)-0-0-0-0-0-| |-2--2-2-(2)-2-2-2-2-|-2--2-2-(2)-2-2-2-2-2-| |-2--2-2-(2)-2-2-2-2-|-2--2-2-(2)-2-2-2-2-2-| |-2--2-2-(2)-2-2-2-2-|-2--2-2-(2)-2-2-2-2-2-| |-2--2-2-(2)-2-2-2-2-|-2--2-2-(2)-2-2-2-2-2-|
|---0--0-0-(0)-0-0-0-0-|-0--0-0-(0)-0-0-0-0-0----| |---0--0-0-(0)-0-0-0-0-|-0--0-0-(0)-0-0-0-0-0----| |-2s5--5-5-(5)-5-5-5-5-|-5--5-5-(5)-5-5-5-5-5S===| |-2s5--5-5-(5)-5-5-5-5-|-5--5-5-(5)-5-5-5-5-5S===| |-2s5--5-5-(5)-5-5-5-5-|-5--5-5-(5)-5-5-5-5-5S===| |-2s5--5-5-(5)-5-5-5-5-|-5--5-5-(5)-5-5-5-5-5S===|
|-0--0-0-(0)-0-0-0-0-|-0--0-0-(0)-0-0-0-0-0-| |-0--0-0-(0)-0-0-0-0-|-0--0-0-(0)-0-0-0-0-0-| |-2--2-2-(2)-2-2-2-2-|-2--2-2-(2)-2-2-2-2-2-| |-2--2-2-(2)-2-2-2-2-|-2--2-2-(2)-2-2-2-2-2-| |-2--2-2-(2)-2-2-2-2-|-2--2-2-(2)-2-2-2-2-2-| |-2--2-2-(2)-2-2-2-2-|-2--2-2-(2)-2-2-2-2-2-|
|---0----0-(0)-0---0-0-|------0-(0)-0---0-0-| |---0----0-(0)-0-0-0-0-|------0-(0)-0-0-0-0-| |-2s5----------5-5-5-5-|------------5-5-5-5-| |-2s5--5---------5-5---|----5---------5-5---| |-2s5------------5-----|--------------5-----| |-2s5------------------|-5------------------|
|----------|----------|----------|------| |----------|----------|----------|------| |----------|----------|----------|------| |----------|----------|----------|------| |----------|----------|----------|------| |-0--------|-0--------|-7--------|-7----|
|----------|----------|----------|-------------------| |----------|----------|----------|-7--7S8S9S10S11s12-| |----------|----------|----------|-7--7S8S9S10S11s12-| |----------|----------|----------|-7--7S8S9S10S11s12-| |----------|----------|----------|-------------------| |-0--------|-0--------|-7--------|-7--7S8S9S10S11s12-|
|----------|----------|----------|------| |-0--------|----------|----------|------| |-0--------|----------|----------|------| |-0--------|----------|----------|------| |----------|----------|----------|------| |-0--------|-0--------|-0--------|-0----|
|----------|----------|----------|------|| |----------|----------|----------|------|| |----------|----------|----------|------|| |----------|----------|----------|------|| |----------|----------|----------|------|| |-0--------|-0--------|-0--------|-0----||
Guitar Solo |-|| |-|| |-|| |-|| |-|| |-||
Verse 3 |-----------------|-----------------|-------------|----------------| |-----------------|-----------------|-------7-----|-7-7----7\------| |-7s9-(9)--9------|-9----0-7s9-7-0--|-/7----7--7--|-7-7-7--7\------| |----------0--0---|----0------------|--7-------7--|-----7----------| |-----------------|-----------------|-------------|----------------| |-0--------0----0-|-----------------|-/7----7-----|-----7-------0--|
|---------------|-----------------|-^0------/12--10----|------------------| |--------5----5-|-----5-----5-----|-^0----0---------12-|-12----12---------| |-3s5----5--5---|-5-----5-----5---|-^0-----------------|----12-12---------| |-3s5-------5---|---5-----5-----5-|-^0--0--------------|---------------0--| |---------------|-----------------|-^0-----------------|------------------| |--------5------|-----------------|-^0-----------------|-------------0----|
|-----------------|-----------------|-------------|----------------| |-----------------|-----------------|-------7-----|-7-7----7\------| |-7s9-(9)--9------|-9----0-7s9-7-0--|-/7----7--7--|-7-7-7--7\------| |----------0--0---|----0------------|--7-------7--|-----7----------| |-----------------|-----------------|-------------|----------------| |-0--------0----0-|-----------------|-/7----7-----|-----7-------0--|
|---------------|-----------------|----------------|---------------| |--------5----5-|-----5-----5-----|---------9------|-------7-------| |-3s5----5--5---|-5-----5-----5---|-5s9--9-----9---|-7--------7----| |-3s5-------5---|---5-----5-----5-|-5s9----------9S|=7--7-------7S=| |---------------|-----------------|----------------|---------------| |--------5------|-----------------|-5s9------------|-7-------------|
|--------------|-----------------|----------------|-----------------| |-------5----5-|-----5-----5-----|---------9------|-------7-7-------| |-5--------5---|-5-----5-----5---|-5s9--9-----9---|-7---------7-----| |-5--5---------|---5-----5-----5-|-5s9----------9S|=7--7--------7S==| |--------------|-----------------|----------------|-----------------| |-5------------|-----------------|-5s9------------|-7---------------|
|--------------|-----------------|----------------|---------------|| |-------5----5-|-----5-----5-----|---------9------|-------7-------|| |-5--------5---|-5-----5-----5---|-5s9--------9---|-7--------7----|| |-5--5---------|---5-----5-----5-|-5s9--9-------9S|=7--7-------7--|| |--------------|-----------------|----------------|---------------|| |-5------------|-----------------|-5s9------------|-7-------------||
Outro |----------|----------|----------|------| |----------|----------|----------|------| |----------|----------|----------|------| |----------|----------|----------|------| |----------|----------|----------|------| |-0--------|-0--------|-0--------|-0----|
|----------|----------|----------|------*| |----------|----------|----------|------*| |----------|----------|----------|------*| |----------|----------|----------|------*| |----------|----------|----------|------*| |-0--------|-0--------|-0--------|-0----*|
Tap to rate this tab
 
# A B C D E F G H I J K L M N O P Q R S T U V W X Y Z